Home » B » Box Car Racer »

Box Car Racer - Tewu With Timing Tabs

Artists:  A B C D E F G H I J K L M N O P Q R S T U V W X Y Z # 

Tewu With Timing Tabs

(ver. 1) Click to play this song!
Box Car Racer

Tuning:	Normal


Intro [0:00]
|-----------------------------------------------------------------|
|-----------------------------------------------------------------|
|-6-6-6-6-6-6-6-6-6-6-6-6-6-6-6-6-6-6-6-6-6-6-6-6-6-6-6-6-6-6-6-6-|
|-x-x-x-x-x-x-x-x-x-x-x-x-x-x-x-x-x-x-x-x-x-x-x-x-x-x-x-x-x-x-x-x-|
|-4-4-4-4-4-4-4-4-4-4-4-4-4-4-4-4-4-4-4-4-4-4-4-4-4-4-4-4-4-4-4-4-|
|-----------------------------------------------------------------|

Pre-verse [0:06]
|---------------------------------|
|---------------------------------|
|-----------------------------6---|
|-4-4-4-6-7-7-7-7-7-7-7-7-6-7-6---| x4
|-4-4-4-6-7-7-7-7-7-7-7-7-6-7-4---|
|-2-2-2-4-5-5-5-5-5-5-5-5-4-5-----|

Verse [0:18]
|-------------------|---------------|
|-------------------|---------------|
|-------------------|---------------|
|-4-4-4-6-7-7-------|-------7-7-----|
|-4-4-4-6-7-7-------|-4-4-4-5-5-4-4-|
|-2-2-2-4-5-5-------|-2-2-2-----2-2-|
                      x x x x x x x

|---------------------------------|
|---------------------------------|
|---------------------------------|
|-------------------------7-7-----| x7
|-7-7-7-7-7-7-7-7---4-4-4-5-5-4-4-|
|-5-5-5-5-5-5-5-5---2-2-2-----2-2-|
  x x x x x x x x   x x x x x x x

Pre-chorus [0:43]
|---------------------------------|
|---------------------------------|
|-6-6-6-6-6-6-6-6-6-6-6-6-6-6-6-6-|
|-x-x-x-x-x-x-x-x-x-x-x-x-x-x-x-x-|
|-4-4-4-4-4-4-4-4-4-4-4-4-4-4-4-4-|
|---------------------------------|

Chorus [0:46]
|-----------------------------------------------------------------|
|-----------------------------------------------------------------|
|---------------------------------------------------------7-7-7-7-|
|-7-7-7-7-7-7-7-7-7-7-7-7-7-7-7-7-6-6-6-6-6-6-6-6-4-4-4-4-7-7-7-7-| x2
|-7-7-7-7-7-7-7-7-7-7-7-7-7-7-7-7-7-7-7-7-7-7-7-7-4-4-4-4-5-5-5-5-|
|-5-5-5-5-5-5-5-5-5-5-5-5-5-5-5-5-4-4-4-4-4-4-4-4-2-2-2-2---------|

Pre-verse [0:59]
|---------------------------------|
|---------------------------------|
|-----------------------------6---|
|-4-4-4-6-7-7-7-7-7-7-7-7-6-7-6---| x2
|-4-4-4-6-7-7-7-7-7-7-7-7-6-7-4---|
|-2-2-2-4-5-5-5-5-5-5-5-5-4-5-----|

Verse [1:06]
|-------------------|---------------|
|-------------------|---------------|
|-------------------|---------------|
|-4-4-4-6-7-7-------|-------7-7-----|
|-4-4-4-6-7-7-------|-4-4-4-5-5-4-4-|
|-2-2-2-4-5-5-------|-2-2-2-----2-2-|
                      x x x x x x x

|---------------------------------|
|---------------------------------|
|---------------------------------|
|-------------------------7-7-----| x7
|-7-7-7-7-7-7-7-7---4-4-4-5-5-4-4-|
|-5-5-5-5-5-5-5-5---2-2-2-----2-2-|
  x x x x x x x x   x x x x x x x

Pre-chorus [1:30]
|---------------------------------|
|---------------------------------|
|-6-6-6-6-6-6-6-6-6-6-6-6-6-6-6-6-|
|-x-x-x-x-x-x-x-x-x-x-x-x-x-x-x-x-|
|-4-4-4-4-4-4-4-4-4-4-4-4-4-4-4-4-|
|---------------------------------|

Chorus [1:34]
|-----------------------------------------------------------------|
|-----------------------------------------------------------------|
|---------------------------------------------------------7-7-7-7-|
|-7-7-7-7-7-7-7-7-7-7-7-7-7-7-7-7-6-6-6-6-6-6-6-6-4-4-4-4-7-7-7-7-| x4
|-7-7-7-7-7-7-7-7-7-7-7-7-7-7-7-7-7-7-7-7-7-7-7-7-4-4-4-4-5-5-5-5-|
|-5-5-5-5-5-5-5-5-5-5-5-5-5-5-5-5-4-4-4-4-4-4-4-4-2-2-2-2---------|

Bridge (clean, delay) [1:59]
|---------------------------------|---------------------------------|
|---------------------------------|---------------------------------|
|---------------------------------|-6-6-6-7-6-----------------------|
|-4-4-4-6-7-----------------------|-x-x-x-x-x-----------------------| x6
|-x-x-x-x-x-----------------------|-4-4-4-5-4-----------------------|
|-2-2-2-4-5-----------------------|---------------------------------|

Chorus [2:36]
|-----------------------------------------------------------------|
|-----------------------------------------------------------------|
|---------------------------------------------------------7-7-7-7-|
|-7-7-7-7-7-7-7-7-7-7-7-7-7-7-7-7-6-6-6-6-6-6-6-6-4-4-4-4-7-7-7-7-| x4
|-7-7-7-7-7-7-7-7-7-7-7-7-7-7-7-7-7-7-7-7-7-7-7-7-4-4-4-4-5-5-5-5-|
|-5-5-5-5-5-5-5-5-5-5-5-5-5-5-5-5-4-4-4-4-4-4-4-4-2-2-2-2---------|

Outro [3:02]
|-----------------------------------------------------------------|
|-----------------------------------------------------------------|
|-6-6-6-6-6-6-6-6-6-6-6-6-6-6-6-6-6-6-6-6-6-6-6-6-6-6-6-6-6-6-6-6-|
|-x-x-x-x-x-x-x-x-x-x-x-x-x-x-x-x-x-x-x-x-x-x-x-x-x-x-x-x-x-x-x-x-|
|-4-4-4-4-4-4-4-4-4-4-4-4-4-4-4-4-4-4-4-4-4-4-4-4-4-4-4-4-4-4-4-4-|
|-----------------------------------------------------------------|

That's pretty much of it. Enjoy
            
Submit corrections

↑ Back to top | Tablatures and chords for acoustic guitar and electric guitar, ukulele, drums are parodies/interpretations of the original songs. You may use it for private study, scholarship, research or language learning purposes only