Home » B » Box Car Racer »

Box Car Racer - Sorow Tabs

Artists:  A B C D E F G H I J K L M N O P Q R S T U V W X Y Z # 

Sorow Tabs

(ver. 1) Click to play this song!
Box Car Racer
this song pretty simple but cool so enjoy

intro
e-------------------------
b-------------------------
g-------------------------
d------------------------- fade
a--5-4--0-7-0-5-4---------
e-------------------------

verse 
e----------------------------------------
b----------------------------------------
g----------------------------------------2x
d--77777777-77777777-44444444--77777777---
a--77777777-77777777-44444444--77777777---
e--55555555-66666666-22222222--66666666---

e--------------------------
b--------------------------
g--------------------------15x
d--------------------------
a--5-4-0-7-0-5-4-----------then back to chords
e--------------------------


chorus with distortion
e-----------------------------------------
b-----------------------------------------
g-----------------------------------------
d--77777777-77777777-44444444-55555555----2x 
a--77777777-77777777-44444444-55555555----
e--55555555-66666666-22222222-66666666----

interlude

b--2--2-3-2-------
g-2-2------------- how many times
            
Submit corrections

↑ Back to top | Tablatures and chords for acoustic guitar and electric guitar, ukulele, drums are parodies/interpretations of the original songs. You may use it for private study, scholarship, research or language learning purposes only