Home » B » Box Car Racer »

Box Car Racer - Intrumental Prefect Tabs

Artists:  A B C D E F G H I J K L M N O P Q R S T U V W X Y Z # 

Intrumental Prefect Tabs

(ver. 1) Click to play this song!
Box Car Racer
Intrumental ( Perfect!!!! ) There shouldn't be any corrections 4 this tab.
Box Car Racer

Guitar 1
Bells arranged 4 guitar...... (After the palm muting comes in i can't figure the rest out)
/--------------------------------------------------------------------/
/--------------------------------------------------------------------/
/--14--14--14--14--14--14--14--14--14--14--14--14--14----14^13-------/
/--------------------------------------------------------------------/
/--------------------------------------------------------------------/
/--------------------------------------------------------------------/

Guitar 2 ( play with the 1st guitar and start right when it matches up with the one above)
/--------------------------------------------------------------------/
/--------------------------------------------------------------------/
/--------------------------------------------------------------------/
/-----------------------------4-4-0-0-0-0-0-0-4-4-------------4-4----/
/-------------------------------------------------4-4-4-4-4-4--------/
/--------------------------------------------------------------------/

Guitar 1 (continues right after the 2nd guitar ends) 
/--------------------------------------------------------------------/
/--------------------------------------------------------------------/
/-14--14--14--14--14--14^16-14--14--14--14--14--14--14--13^14-13-----/
/--------------------------------------------------------------------/
/--------------------------------------------------------------------/
/--------------------------------------------------------------------/
Gutiar 1 (continued after the line above)
/-----------------16--17--16------17--16----------17--16-------------/
/-----14--15--17--------------17----------17--15---------17-15-14----/
/-14--------------------------------------------------------------14-/
/--------------------------------------------------------------------/
/--------------------------------------------------------------------/
/--------------------------------------------------------------------/

Gutiar 1 (continued after the line above)
/-----------------16--17--16------17--16----------17--16-------------/
/-----14--15--17--------------17----------17--15---------17-15-14----/
/-----------------------------------------------------------------14-/
/--------------------------------------------------------------------/
/--------------------------------------------------------------------/
/--------------------------------------------------------------------/

Guitar 3 (with distortion)
/------------------------------------------------------------------------/
/------------------------------------------------------------------------/
/-------------------------------------9--9--9--9-------------------------/
/-------------9--9--9--9--------------9--9--9--9--------------7--7--7--7-/
/-------------6--6--6--6--------------7--7--7--7--------------7--7--7--7-/
/-0--0--0--0--------------0--0--0--0--------------0--0--0--0--4--4--4--4-/

Guitar 3 (continued right after line above)
/------------------------------------------------------------------------/
/------------------------------------------------------------------------/
/-------------------------------------------------------------9--9--9--9-/
/-------------7--7--7--7--------------9--9--9--9--------------9--9--9--9-/
/-------------7--7--7--7--------------6--6--6--6--------------7--7--7--7-/
/-0--0--0--0--5--5--5--5--0--0--0--0--------------0--0--0--0-------------/

Gutiar 3 (continued right after line above)
/--------------------------------------------------------------------/
/--------------------------------------------------------------------/
/--------------------------------------------------------------------/
/-------------------------------------7------------------------------/
/-------------7--7--7--7--------------7------------------------------/
/-0--0--0--0--4--4--4--4--0--0--0--0--5------------------------------/

Guitar 1
/--------------------------------------------------------------------/
/--------------------------------------------------------------------/
/--13--14------14--13^14^13----------13--14------14--13------13--14--/
/--------------------------------14----------------------------------/
/--------------------------------------------------------------------/
/--------------------------------------------------------------------/

Gutiar 1 (continued after the line above)
/-------------------------------------------------------------------/
/---------------------------------------------------------------14--/
/-14--14--14----14--14--13--14---14--13--13--14--13-----13--14------/
/-------------------------------------------------------------------/
/-------------------------------------------------------------------/
/-------------------------------------------------------------------/

Gutiar 1 (continued after the line above)
/--------16--17--16------17--16----------17-16----------------------/
/15--17--------------17----------17--15--------17-15-14-------------/
/-------------------------------------------------------14----------/
/-------------------------------------------------------------------/
/-------------------------------------------------------------------/
/-------------------------------------------------------------------/

Gutiar 1 (continued after the line above)
/------------------16--17--16------17--16----------17-16-------------/
/------14--15--17--------------17----------17--15--------17-15-14----/
/-(14)------------------------------------------------------------14-/
/--------------------------------------------------------------------/
/--------------------------------------------------------------------/
/--------------------------------------------------------------------/

Guitar 3 (with distortion)
/------------------------------------------------------------------------/
/------------------------------------------------------------------------/
/-------------------------------------9--9--9--9-------------------------/
/-------------9--9--9--9--------------9--9--9--9-------------------------/
/-------------6--6--6--6--------------7--7--7--7--------------7--7--7--7-/
/-0--0--0--0--------------0--0--0--0--------------0--0--0--0--4--4--4--4-/

Guitar 3 (continued right after line above)
/------------------------------------------------------------------------/
/------------------------------------------------------------------------/
/-------------------------------------------------------------9--9--9--9-/
/-------------7--7--7--7--------------9--9--9--9--------------9--9--9--9-/
/-------------7--7--7--7--------------6--6--6--6--------------7--7--7--7-/
/-0--0--0--0--5--5--5--5--0--0--0--0--------------0--0--0--0-------------/

Gutiar 3 (continued right after line above)
/--------------------------------------------------------------------/
/--------------------------------------------------------------------/
/--------------------------------------------------------------------/
/-------------------------------------7------------------------------/
/-------------7--7--7--7--------------7------------------------------/
/-0--0--0--0--4--4--4--4--0--0--0--0--5------------------------------/

/------------------16--17--16------17--16----------17-16-------------/
/------14--15--17--------------17----------17--15--------17-15-14----/
/--14-------------------------------------------------------------14-/
/--------------------------------------------------------------------/
/--------------------------------------------------------------------/
/--------------------------------------------------------------------/

Guitar 3 (with distortion)
/------------------------------------------------------------------------/
/------------------------------------------------------------------------/
/-------------------------------------9--9--9--9-------------------------/
/-------------9--9--9--9--------------9--9--9--9-------------------------/
/-------------6--6--6--6--------------7--7--7--7--------------7--7--7--7-/
/-0--0--0--0--------------0--0--0--0--------------0--0--0--0--4--4--4--4-/

Guitar 3 (continued right after line above)
/------------------------------------------------------------------------/
/------------------------------------------------------------------------/
/-------------------------------------------------------------9--9--9--9-/
/-------------7--7--7--7--------------9--9--9--9--------------9--9--9--9-/
/-------------7--7--7--7--------------6--6--6--6--------------7--7--7--7-/
/-0--0--0--0--5--5--5--5--0--0--0--0--------------0--0--0--0-------------/

Gutiar 3 (continued right after line above)
/--------------------------------------------------------------------/
/--------------------------------------------------------------------/
/--------------------------------------------------------------------/
/-------------------------------------7------------------------------/
/-------------7--7--7--7--------------7------------------------------/
/-0--0--0--0--4--4--4--4--0--0--0--0--5------------------------------/

Guitar 3 (with distortion)
/------------------------------------------------------------------------/
/------------------------------------------------------------------------/
/-------------------------------------9--9--9--9-------------------------/
/-------------9--9--9--9--------------9--9--9--9-------------------------/
/-------------6--6--6--6--------------7--7--7--7--------------7--7--7--7-/
/-0--0--0--0--------------0--0--0--0--------------0--0--0--0--4--4--4--4-/

Guitar 3 (continued right after line above)
/------------------------------------------------------------------------/
/------------------------------------------------------------------------/
/-------------------------------------------------------------9--9--9--9-/
/-------------7--7--7--7--------------9--9--9--9--------------9--9--9--9-/
/-------------7--7--7--7--------------6--6--6--6--------------7--7--7--7-/
/-0--0--0--0--5--5--5--5--0--0--0--0--------------0--0--0--0-------------/

Gutiar 3 (continued right after line above)
/--------------------------------------------------------------------/
/--------------------------------------------------------------------/
/--------------------------------------------------------------------/
/-------------------------------------7------------------------------/
/-------------7--7--7--7--------------7------------------------------/
/-0--0--0--0--4--4--4--4--0--0--0--0--5------------------------------/

Gutiar 3 (continued right after line above)
/--------------------------------------------------------------------/
/--------------------------------------------------------------------/
/--------------------------------------------------------------------/
/-------------------------------------7------------------------------/
/-------------7--7--7--7--------------7------------------------------/
/-0--0--0--0--4--4--4--4--0--0--0--0--5------------------------------/
            
Submit corrections

↑ Back to top | Tablatures and chords for acoustic guitar and electric guitar, ukulele, drums are parodies/interpretations of the original songs. You may use it for private study, scholarship, research or language learning purposes only