Home » B » Box Car Racer »

Box Car Racer - In The End With You Tabs

Artists:  A B C D E F G H I J K L M N O P Q R S T U V W X Y Z # 

In The End With You Tabs

(ver. 1) Click to play this song!
Box Car Racer
Intro
e -----------------------------------------------
B -----------------------------------------------
G -6-6-6-6-6-6-6-6-6-6-6-6-6-6-------------------
D -6-6-6-6-6-6-6-6-6-6-6-6-6-6-------------------
A -4-4-4-4-4-4-4-4-4-4-4-4-4-4-------------------
E -----------------------------------------------


Verse (with distortion)
e ---------------------------------------------------------------------------------
B ---------------------------------------------------------------------------------
G -----------------------------------------------------7-7-7-7-7-7-7-7-------------
D -7-7-7-7-7-7-7-7-6-6-6-6-6-6-6-6-6-4-4-4-4-4-4-4-4-4-7-7-7-7-7-7-7-7-------------
A -7-7-7-7-7-7-7-7-6-6-6-6-6-6-6-6-6-4-4-4-4-4-4-4-4-4-5-5-5-5-5-5-5-5-------------
E -5-5-5-5-5-5-5-5-4-4-4-4-4-4-4-4-4-2-2-2-2-2-2-2-2-2-----------------------------

Verse Cont. (w/o dist.)
e ------------------------------------------------------------------
B ------------------------------------------------------------------
G ------------------------------------------------------------------
D ------------------------------------------------------------------
A -4-4-4-6-7--------------------------------------------------------
E -2-2-2-4-5--------------------------------------------------------
            
Submit corrections

↑ Back to top | Tablatures and chords for acoustic guitar and electric guitar, ukulele, drums are parodies/interpretations of the original songs. You may use it for private study, scholarship, research or language learning purposes only