Home » B » Bowling For Soup »

Bowling For Soup - When We Die Tabs

Artists:  A B C D E F G H I J K L M N O P Q R S T U V W X Y Z # 

When We Die Tabs

(ver. 1) Click to play this song!
Bowling For Soup
 Rating:
4/5 (4 votes)
                -----------------------------------------------------------------
-----------------------------------------------------------------
Tuning: Standard

Intro:
e|---------------------------------------------------------------|
B|---------------------------------------------------------------|
G|--7-----4------------------------------------------------------|
D|--7--7--4--5---------------------------------------------------|
A|--5--7--2--5---------------------------------------------------|
E|-----5-----3---------------------------------------------------|

Riff 1:
e|---------------------------------------------------------------|
B|--7-3-8-3-7-3-5-3----------------------------------------------|
G|---------------------(X2)--------------------------------------|
D|---------------------------------------------------------------|
A|---------------------------------------------------------------|
E|---------------------------------------------------------------|

Verse:
e|---------------------------------------------------------------|
B|---------------------------------------------------------------|
G|--7-7-77----------4-4-44---------------------------------------|
D|--7-7-77--7-7-77--4-4-44--5-5-55--(X2)-------------------------|
A|--5-5-55--7-7-77--2-2-22--5-5-55-------------------------------|
E|----------5-5-55----------3-3-33-------------------------------|
"I know that its early...."

Pre- chorus:
e|---------------------------------------------------------------|
B|---------------------------------------------------------------|
G|--------------------------------22222222-----------------------|
D|--55555555--55555555--22222222--22222222-----------------------|
A|--55555555--55555555--22222222--00000000-----------------------|
E|--33333333--22222222--00000000---------------------------------|
"Cause nothins worth losin...."

Chorus:
e|--------------------------------------------------------------------|
B|--------------------------------------------------------------------|
G|--777--------------777-------44------444--222--777---------------7--|
D|--777--777-555555--777--777--44--55--444--222--777--55-555--777--7--|
A|--555--777-555555--555--777--22--55--222--000--555--55-555--777--5--|
E|-------555-333333-------555------33-----------------33-555--555-----|
"And I know that we're gonna be fine..."

Bridge:
e|---------------------------------------------------------------|
B|---------------------------------------------------------------|
G|--44------7777-------------------------------------------------|
D|--44--55--7777--7777--(X2)-------------------------------------|
A|--22--55--5555--7777-------------------------------------------|
E|------33--------5555-------------------------------------------|
"Come over, come over...."

End on a D

Sorry about the riff, I have a broken G string right now lol...its still right but it 
be played alot easier than that.
            
Submit corrections

↑ Back to top | Tablatures and chords for acoustic guitar and electric guitar, ukulele, drums are parodies/interpretations of the original songs. You may use it for private study, scholarship, research or language learning purposes only