» » »

Bowling For Soup - When We Die Bass

Artists:  A B C D E F G H I J K L M N O P Q R S T U V W X Y Z # 

When We Die Bass

(ver. 1) Click to play this song!
Bowling For Soup
 Rating:
4/5 (4 votes)

 When We Die lessons Tabs too difficult? Try these video lessons and learn fast
 
                Band: Bowling For Soup

*-Sustain Note
/-Slide Up
\-Slide Down
Intro:
G------------------------------------------------------|
D------------------------------------------------------|
A-5*—-55-4----------2*--2245---------5*--5-5-4---------|
E----5-----5*-0505-----2-----3*-033-----5-5----5*-0505-|

G-----------------------|
D-----------------------|
A-2*--2245-----------5*-|
E----2-----3*--03575----|

Pre-Chorus:
G----------------------------------------------------|
D----------------------------------------------------|
A------10101010-----9999----------00000/121212121212-|
E-3333/--------2222/----0000000000-------------------|

Chorus:
G-----------------------------------------------------|
D-----------------------------------------------------|
A-5555--------------5555-----245-----2222-0000-57910--|
E-----5555-33333333-----5555-----3333-----------------|

G-------------|
D-------------|
A-12*--12--12-|
E--- 12—12----|

Pre-Verse
G----------------------------------|
D----------------------------------|
A-55555555--------22222454---------|
E---------55555555--------33333333-|

Verse: X2
G-----------------------------|
D-----------------------------|
A-5*--55--------2*--22--------|
E----5---5*-055----2---3*-033-|

Pre-chorus 2:
G------------------------------------------------|
D------------------------------------------------|
A------10101010-----9999--------00000/1212121412-|
E-3333/--------2222/----00000000-----------------|

Chorus 2:
G---------------------------------------------------|
D---------------------------------------------------|
A-5555--------------5555----245----2222-0000-57910--|
E-----5555-33333333-----5555---3333-----------------|

G------------|
D------------|
A-12*-0000000
E------------

Bridge:
G--------------------------------------------------|
D--------------------------------------------------|
A-22---55555555----------22222222---------55555555-|
E----33---------55555555----------33333333---------|

G--------------------|
D--------------------|
A-0000/1212141210—-5*
E----------------12—

Chorus 3:
G----------------------------------------------|
D----------------------------------------------|
A-5555----245----2222-0000-57910*-12*-12141617-|
E-----5555---3333------------------------------|

Chorus 4:
G--------------------------------------------------|
D--------------------------------------------------|
A-5555-------------5555----245----2222-0000-57910--|
E-----5555-33333333----5555---3333-----------------|

G--------------|
D-----1412-----|
A-12*-----1412-|
E--------------|

Outro:
G------------------|
D------------------|x3
A-5555----2222-----|
E-----5555----3333-|

G-------------------|
D-------------------|
A-5555-1212141612/5*
E-------------------

That’s pretty much the gist of It, I’m not sure on a couple of the fills in there but It 
pretty accurate.
            
Submit corrections


        When We Die lessons Hard to play? Try these video lessons and learn fast When We Die lessons
        
↑ Back to top | Tablatures and chords for acoustic guitar and electric guitar, ukulele, drums are parodies/interpretations of the original songs. You may use it for private study, scholarship, research or language learning purposes only