» » »

Bowling For Soup - The Bitch Song Tabs

Artists:  A B C D E F G H I J K L M N O P Q R S T U V W X Y Z # 

The Bitch Song Tabs

(ver. 3) Click to play this song!
Bowling For Soup
 Rating:
4/5 (4 votes)

 The Bitch Song lessons Tabs too difficult? Try these video lessons and learn fast
 
                Intro part 1 

      G        D        C
E-----22/88-22---22/8822---------------------------------------------
B-----22/88-22---22/8822---------------------------------------------
G--------------7--------5--------------------------------------------
D-----5--------7--------5--(Let this 1 Ring)-------------------------
A-----5--------5--------3--------------------------------------------
E-----3--------------------------------------------------------------

Intro Part 2
    
E--------------------------------------------------------------------
B--------------------------------------------------------------------
G--------------7--------5--------------------------------------------
D-----5--------7-X8---- 5-X16----------------------------------------
A-----5-X8-----5--------3--------------------------------------------
E-----3--------------------------------------------------------------


Verse part 1 


E--------------------------------------------------------------------
B--------------------------------------------------------------------
G--------------7--------5--------------------------------------------
D-----5--------7--------5--(Let this 1 Ring)-------------------------
A-----5--------5--------3--------------------------------------------
E-----3--------------------------------------------------------------

Verse part 2 


E--------------------------------------------------------------------
B--------------------------------------------------------------------
G-------------------------7------------------5-----------------------
D----5--------------------7-X8 palm muted----5-play once and let ring
A----5-X8 palm muted------5------------------3-----------------------
E----3----------------------------------------------------------------


Chorus 

E--------------------------------------------------------------------
B--------------------------------------------------------------------
G--------------7--------5--------------------------------------------
D-----5--------7-X8---- 5-X16----------------------------------------
A-----5-X8-----5--------3--------------------------------------------
E-----3--------------------------------------------------------------



E------|-------------------------------------------------------------
B------|-------------------------------------------------------------
G------|-------------------------------------------------------------
D------|-------------------------------------------------------------
A----9-|------7--------9------5--------------------------------------
E------|-------------------------------------------------------------






 heres the order

Intro part 1 (X1)
Intro part 2 (X1)
Verse part 1 (x1)
Verse part 2 (X1)
Chorus (X4)
Verse part 2 (X2)
Chorus (x4)
Solo (X6)
Chorus (X4)
            
Submit corrections


        The Bitch Song lessons Hard to play? Try these video lessons and learn fast The Bitch Song lessons
        
↑ Back to top | Tablatures and chords for acoustic guitar and electric guitar, ukulele, drums are parodies/interpretations of the original songs. You may use it for private study, scholarship, research or language learning purposes only