» » »

Bowling For Soup - The Bitch Song Tabs

Artists:  A B C D E F G H I J K L M N O P Q R S T U V W X Y Z # 

The Bitch Song Tabs

(ver. 1) Click to play this song!
Bowling For Soup
 Rating:
4/5 (4 votes)

 The Bitch Song lessons Tabs too difficult? Try these video lessons and learn fast
 
                PROPS GO TO: Barry Nason

this is the secound guitar not like the main bits but its still pretty cool to play along to I just havent got one bit. Its right dont worry but it sound better with the song.

\-SLIDE UP
pm -PALM MUTE
Stadard Tuning E A D G B E

intro:
E--------------------------------------------------------------------------------------
B--------------------------------------------------------------------------------------
G-------7--5---------------------------------------------------------------------------
D----5--7--3-LET-RING-FOR-4--------------------------------------------------------------
A----5--5--3---------------------------------------------------------------------------
E----3---------------------------------------------------------------------------------

E--------------------------------------------------------------------------------------
B--------------------------------------------------------------------------------------
G-----------777777--555----------------------------------------------------------------
D----555555-777777--555--LET RING FOR 2------------------------------------------------
A----555555-555555--333----------------------------------------------------------------
E----333333----------------------------------------------------------------------------

PRE VERSE:
E--------------------------------------------------------------------------------------
B--------------------------------------------------------------------------------------
G------7--5----------------------------------------------------------------------------
D--5---7--5--LET RING FOR 4------------------------------------------\-----------------
A--5---5--3----------------------------------------------------------------------------
E--3-----------------------------------------------------------------------------------
 IS IT OK IF I SPEAK TO YOU TODAY UVE p**sED OF FOR A WEEK NOW 

VERSE:
E------------------------------------------------------------------------------------
B------------------------------------------------------------------------------------
G---------777777---5-----------------------------------------------------------------
D-555555--777777---3\---------------------------------------------------------------- 
A-555555--555555---3-----------------------------------------------------------------
E-333333-----------------------------------------------------------------------------
 (______________)  
       PM

CHORUS:
E------------------------------------------------------------------------------------
B------------------------------------------------------------------------------------
G----------7777777---555555----------------------------------------------------------
D-555555---7777777---555555----------------------------------------------------------
A-555555---5555555---333333----------------------------------------------------------
E-333333-----------------------------------------------------------------------------
            
Submit corrections


        The Bitch Song lessons Hard to play? Try these video lessons and learn fast The Bitch Song lessons
        
↑ Back to top | Tablatures and chords for acoustic guitar and electric guitar, ukulele, drums are parodies/interpretations of the original songs. You may use it for private study, scholarship, research or language learning purposes only