» » »

Bowling For Soup - Bare Necessities Tabs

Artists:  A B C D E F G H I J K L M N O P Q R S T U V W X Y Z # 

Bare Necessities Tabs

(ver. 1) Click to play this song!
Bowling For Soup
 Rating:
3.8/5 (5 votes)

 Bare Necessities lessons Tabs too difficult? Try these video lessons and learn fast
 
                (Intro)
E----------------------------------------------------------------|
B----------------------------------------------------------------|
G-------------9--7--9--7--5--5--7--5--7--5--7--5-----5--5--4--5--|
D---5--7--10--------------------------------------7--------------|
A----------------------------------------------------------------|
E----------------------------------------------------------------|


E-------------------------|
B------10--8--6-----------|
G---9------------9--7-----|
D-------------------------|
A-------------------------|
E-------------------------|

Anougher great song by Bowling For Soup, don't knock it until you've heard it!
            
Submit corrections


        Bare Necessities lessons Hard to play? Try these video lessons and learn fast Bare Necessities lessons
        
↑ Back to top | Tablatures and chords for acoustic guitar and electric guitar, ukulele, drums are parodies/interpretations of the original songs. You may use it for private study, scholarship, research or language learning purposes only