» » »

Bowling For Soup - Bare Necessities Tabs

Artists:  A B C D E F G H I J K L M N O P Q R S T U V W X Y Z # 

Bare Necessities Tabs

(ver. 3) Click to play this song!
Bowling For Soup
 Rating:
3.6/5 (25 votes)

 Bare Necessities lessons Tabs too difficult? Try these video lessons and learn fast
 
                Standard tuning.

Intro.
E---------------------------------------------------------------5--3--1--0-----|
B-------------------------------------------------------------5------------3---|
G---------5---7/9--7--9--7--5--5--7--5--7--5--7--5---4-5-4-5-------------------|
D---5--7-------------------------------------------7---------------------------|
A------------------------------------------------------------------------------|
E------------------------------------------------------------------------------|

Listen for the Transactions between chords.

Look for the....        I mean the...                          Where ever I....
-------------------    --------------------------------       --------------|
-------------------    --------------------------------       --------------|
-------------------    --------------------------------       --------------|
-5-------5--------     --5-------5---2-----------5---         -------5------|
-5---3---5--5----      --5---5---5---2---3---5---5----        ---5---5------|
-3---3---3--5----      --3 --5---3---0---3---5---3----        ---5---3------|
-----1------3----      ------1-----------1---3---------       ---3----------|
                                                               P.M.


The bee's are....                          The bare necessities of life will come to you...
---------------------                     ------------------|
---------------------                     ------------------|
-2-------5---2-----                       ------------5-----|
-2---5---5---2------                      --3----5----5-----|
-0---5---3---0------                      --3----5----3-----|
-----3--------------                      --1----3----------|

Bridge or break...... what ever it is.

--3----3---3---3----------------|
--3----3---3---3----------------|
--0----0---0---0----------2-----|
--0----2---0---2---3---5--2-----|
--2----3---2---3---3---5--0-----|
--3--------3-------1---3--------|            
Submit corrections


        Bare Necessities lessons Hard to play? Try these video lessons and learn fast Bare Necessities lessons
        
↑ Back to top | Tablatures and chords for acoustic guitar and electric guitar, ukulele, drums are parodies/interpretations of the original songs. You may use it for private study, scholarship, research or language learning purposes only