» » »

Bowling For Soup - 99 Biker Friends Tabs

Artists:  A B C D E F G H I J K L M N O P Q R S T U V W X Y Z # 

99 Biker Friends Tabs

(ver. 2) Click to play this song!
Bowling For Soup
 Rating:
4.5/5 (8 votes)

 99 Biker Friends lessons Tabs too difficult? Try these video lessons and learn fast
 
                -----------------------------------------------------------------
99 Biker Friends - Bowling For Soup
-----------------------------------------------------------------
Tuning: Standard

Intro/ Verse:
e|---------------------------------------------------------------|
B|---------------------------------------------------------------|
G|--77777777-----------------------------------------------------|
D|--77777777--77777777--55555555--77777777--(X4)-----------------|
A|--55555555--77777777--55555555--77777777-----------------------|
E|------------55555555--33333333--55555555-----------------------|
"Such a big man, such a little chick...."

e|-------------------------------------|
B|-------------------------------------|
G|-------------------------------------|
D|--5555555-777777---------------------|
A|--5555555-777777---------------------|
E|--3333333-555555---------------------|

Chorus:
e|----------------------------------------------------------------|
B|----------------------------------------------------------------|
G|--77777777------------------------------------------------------|
D|--77777777--77777777--55555555--77777777--(X2)--555555--777777--|
A|--55555555--77777777--55555555--77777777--------555555--777777--|
E|------------55555555--33333333--55555555--------333333--555555--|
"It takes a tough man to slap her around...."

e|--------------------------------------------------------|
B|--------------------------------------------------------|
G|--444444----------777777--------------------------------|
D|--444444--555555--777777--7-----------------------------|
A|--222222--555555--555555--7-----------------------------|
E|----------333333----------5-----------------------------|
"Behind that tinted glass...."

Bridge:
e|-----------------------------------------------------------------------|
B|-----------------------------------------------------------------------|
G|--44444444-------------------------------------------------------------|
D|--44444444--77777777--5555--(X2)-55555555--77777777--(X2)-5------------|
A|--22222222--77777777--5555-------55555555--77777777-------5-Let Ring---|
E|------------55555555--3333-------33333333--55555555-------3------------|
"I wish Bruce Lee was here right now...."

I'm pretty sure this ones 99.9% correct...im averaging around 3-4 tabs from the album a day...not bad
            
Submit corrections


        99 Biker Friends lessons Hard to play? Try these video lessons and learn fast 99 Biker Friends lessons
        
↑ Back to top | Tablatures and chords for acoustic guitar and electric guitar, ukulele, drums are parodies/interpretations of the original songs. You may use it for private study, scholarship, research or language learning purposes only