» » »

Bowling For Soup - 99 Biker Friends Tabs

Artists:  A B C D E F G H I J K L M N O P Q R S T U V W X Y Z # 

99 Biker Friends Tabs

(ver. 1) Click to play this song!
Bowling For Soup
 Rating:
4/5 (6 votes)

 99 Biker Friends lessons Tabs too difficult? Try these video lessons and learn fast
 
                -------------------------------------------------------------------------------
-------------------------------------------------------------------------------

Tuning: EADGBE

Intro
e|------------------------------------------------------------------------|
B|------------------------------------------------------------------------|
G|-777777-666666----------------------------------------------------------|
D|-777777-777777-555555-777777--------------------------------------------|
A|-555555-444444-555555-777777--------------------------------------------|
E|---------------333333-555555--------------------------------------------|
pm  ...    ...    ...    ...  

Verse 1
e|------------------------------------------------------------------------|
B|------------------------------------------------------------------------|
G|-77777777-66666666------------------------------------------------------|
D|-77777777-77777777-55555555-77777777------------------------------------|
A|-55555555-55555555-55555555-77777777------------------------------------|
E|-------------------33333333-55555555------------------------------------|
pm  ....... ........ ........ ........

e|------------------------------------------------------------------------|
B|------------------------------------------------------------------------|
G|-77777777-66666666------------------------------------------------------|
D|-77777777-77777777-55555555-77777777------------------------------------|
A|-55555555-55555555-55555555-77777777------------------------------------|
E|-------------------33333333-55555555------------------------------------|
pm ........ ........ ........ ........

e|------------------------------------------------------------------------|
B|------------------------------------------------------------------------|
G|-77777777-66666666------------------------------------------------------|
D|-77777777-77777777-55555555-77777777-5-5-55-5-7-7-7\\\\\\\--------------|
A|-55555555-55555555-55555555-77777777-5-5-55-5-7-7-7\\\\\\\--------------|
E|-------------------33333333-55555555-3-3-33-3-5-5-5\\\\\\\--------------|
pm .. .. .. .. .. .. .. .. .. ..

Chorus
e|------------------------------------------------------------------------|
B|------------------------------------------------------------------------|
G|-77777777---------------------------------------------------------------|
D|-77777777-77777777-55555555-77777777------------------------------------| x2
A|-55555555-77777777-55555555-77777777------------------------------------|
E|----------55555555-33333333-55555555------------------------------------|

e|------------------------------------------------------------------------|
B|------------------------------------------------------------------------|
G|-------------------------------------77777777---------------------------|
D|-55555555-77777777-99999999-55555555-77777777-7-------------------------|
A|-55555555-77777777-99999999-55555555-55555555-7-------------------------|
E|-33333333-55555555-77777777-33333333----------5-------------------------|

Interlude
e|------------------------------------------------------------------------|
B|------------------------------------------------------------------------|
G|-777777-666666----------------------------------------------------------|
D|-777777-777777-555555-777777--------------------------------------------|
A|-555555-444444-555555-777777--------------------------------------------|
E|---------------333333-555555--------------------------------------------|
pm  ...    ...    ...    ...  

Verse 1
e|------------------------------------------------------------------------|
B|------------------------------------------------------------------------|
G|-77777777-66666666------------------------------------------------------|
D|-77777777-77777777-55555555-77777777------------------------------------|
A|-55555555-55555555-55555555-77777777------------------------------------|
E|-------------------33333333-55555555------------------------------------|
pm  ....... ........ ........ ........

e|------------------------------------------------------------------------|
B|------------------------------------------------------------------------|
G|-77777777-66666666------------------------------------------------------|
D|-77777777-77777777-55555555-77777777------------------------------------|
A|-55555555-55555555-55555555-77777777------------------------------------|
E|-------------------33333333-55555555------------------------------------|
pm ........ ........ ........ ........

e|------------------------------------------------------------------------|
B|------------------------------------------------------------------------|
G|-77777777-66666666------------------------------------------------------|
D|-77777777-77777777-55555555-77777777-5-5-55-5-7-7-7-xx------------------|
A|-55555555-55555555-55555555-77777777-5-5-55-5-7-7-7-xx------------------|
E|-------------------33333333-55555555-3-3-33-3-5-5-5-xx------------------|
pm .. .. .. .. .. .. .. .. .. ..

Chorus
e|------------------------------------------------------------------------|
B|------------------------------------------------------------------------|
G|-77777777---------------------------------------------------------------|
D|-77777777-77777777-55555555-77777777------------------------------------| x2
A|-55555555-77777777-55555555-77777777------------------------------------|
E|----------55555555-33333333-55555555------------------------------------|

e|------------------------------------------------------------------------|
B|------------------------------------------------------------------------|
G|-------------------------------------77777777---------------------------|
D|-55555555-77777777-99999999-55555555-77777777-7--7-7--------------------|
A|-55555555-77777777-99999999-55555555-55555555-7--7-7--------------------|
E|-33333333-55555555-77777777-33333333----------5--5-5--------------------|

Bridge
e|------------------------------------------------------------------------|
B|------------------------------------------------------------------------|
G|------------------------------------------------------------------------|
D|-99999999-77777777-5555555555555555-------------------------------------|
A|-99999999-77777777-5555555555555555-------------------------------------|
E|-77777777-55555555-3333333333333333-------------------------------------|

e|------------------------------------------------------------------------|
B|------------------------------------------------------------------------|
G|------------------------------------------------------------------------|
D|-99999999-77777777-5555555555555555-7777777777777777--------------------|
A|-99999999-77777777-5555555555555555-7777777777777777--------------------|
E|-77777777-55555555-3333333333333333-5555555555555555--------------------|
pm                    ............... ................ 

e|------------------------------------------------------------------------|
B|------------------------------------------------------------------------|
G|------------------------------------------------------------------------|
D|-55555555-77777777-99999999-5-------------------------------------------|
A|-55555555-77777777-99999999-5-\\\\\\\\\\\\\\\\--------------------------|
E|-33333333-55555555-77777777-3-\\\\\\\\\\\\\\\\--------------------------|
pm ........ ........ ........

Chorus
e|------------------------------------------------------------------------|
B|------------------------------------------------------------------------|
G|-77777777---------------------------------------------------------------|
D|-77777777-77777777-55555555-77777777------------------------------------| x3
A|-55555555-77777777-55555555-77777777------------------------------------|
E|----------55555555-33333333-55555555------------------------------------|

e|------------------------------------------------------------------------|
B|------------------------------------------------------------------------|
G|-------------------------------------77777777---------------------------|
D|-55555555-77777777-99999999-55555555-77777777-7-------------------------|
A|-55555555-77777777-99999999-55555555-55555555-7-------------------------|
E|-33333333-55555555-77777777-33333333----------5-------------------------|

Outro
e|------------------------------------------------------------------------|
B|------------------------------------------------------------------------|
G|-777777-666666----------------------------------------------------------|
D|-777777-777777-555555-777777--------------------------------------------| x2
A|-555555-444444-555555-777777--------------------------------------------|
E|---------------333333-555555--------------------------------------------|
pm  ...    ...    ...    ...  

| /  slide up
| \  slide down
| h  hammer-on
| p  pull-off
| ~  vibrato
| +  harmonic
| x  Mute note
===============================================================================
            
Submit corrections


        99 Biker Friends lessons Hard to play? Try these video lessons and learn fast 99 Biker Friends lessons
        
↑ Back to top | Tablatures and chords for acoustic guitar and electric guitar, ukulele, drums are parodies/interpretations of the original songs. You may use it for private study, scholarship, research or language learning purposes only