Home » B » Bouncing Souls »

Bouncing Souls - True Believers Tabs

Artists:  A B C D E F G H I J K L M N O P Q R S T U V W X Y Z # 

True Believers Tabs

(ver. 3) Click to play this song!
Bouncing Souls
True Believers by The Bouncing Souls

e--------------------|-------------------|
b--------------------|-------------------|
g-------5------------|-5----5----7----7--|
d--1----5----5---5---|-5----5----7----7--|
a--1----3----5---5---|-3----3----5----5--|
e--3---------3---3---|-------------------|
         Let each chord ring

e-------------------------------------|
b-------------------------------------|
g-------------------------------------|
d----------------20-00-0-020-00-3-33--| 
a-33333323-332323-----3-3------3----3-|
e-------------------------------------|

e-------------------------------111---|
b-66666665-555555-3-33331353-331---1--|
g----------------5--------------------|
d-------------------------------------|
a-------------------------------------|
e-------------------------------------|

e--------------------------------------------------|
b--------------------------------------------------|
g------------55555555------------------------------| x2
d--33333333--33333333--555555555555555555555555----|
a--33333333--33333333--555555555555555555555555----|
e--11111111------------333333333333333333333333----|

e-----------------------|
b-----------------------|
g------5----------------| x4
d---3--5--5---555555----|
a---3--3--5---555555----|
e---1-----3---333333----|

Wait a bit as the bass plays..

Then
e-------------------------------------------------------------|
b-------------------------------------------------------------| *=pm
g-------------------555-555-555-555/--------------------------| /=slide
d-333-333-333-333/--555-555-555-555/--555-555-555-555--555555-|
a-333-333-333-333/--333-333-333-333/--555-555-555-555--555555-|
e-111-111-111-111/--------------------333-333-333-333--333333-|
  **  **  **  **    **  **  **  **    **  **  **  **   slowly unmute last chord

e-------------------------------------|
b-------------------------------------|
g-------------------------------------|
d----------------20-00-0-020-00-3-33--| 
a-33333323-332323-----3-3------3----3-|
e-------------------------------------|

e----------------------------------111---|
b-66666665-3-1-5-3-1-33-1-33-1-33-1---1--|
g----------------------------------------|
d----------------------------------------|
a----------------------------------------|
e----------------------------------------|

e--------------------------------------------------|
b--------------------------------------------------|
g------------55555555------------------------------| x2
d--33333333--33333333--555555555555555555555555----|
a--33333333--33333333--555555555555555555555555----|
e--11111111------------333333333333333333333333----|

e-----------------------|
b-----------------------|
g------5----------------| x4
d---3--5--5---555555----|
a---3--3--5---555555----|
e---1-----3---333333----|

e--------------|
b--------------|
g------5-------|
d---3--5--5----| Let the last chord ring
a---3--3--5----|
e---1-----3----|
            
Submit corrections

↑ Back to top | Tablatures and chords for acoustic guitar and electric guitar, ukulele, drums are parodies/interpretations of the original songs. You may use it for private study, scholarship, research or language learning purposes only