Home » B » Bouncing Souls »

Bouncing Souls - True Believers Bass

Artists:  A B C D E F G H I J K L M N O P Q R S T U V W X Y Z # 

True Believers Bass

(ver. 2) Click to play this song!
Bouncing Souls
-------------------------------------------------------------------------------
			   True Believers - Bouncing Souls
-------------------------------------------------------------------------------


Tuning: GDAE (normal)

Intro 

G|---------------------------------------------------------------------------|
D|---------------------------------------------------------------------------|
A|-8~-------------8~---------------------------------------------------------|
E|----8~--3~--3~------8~--3~--3~---------------------------------------------|

Verse/chorus

G|---------------------------------------------------------------------------|
D|---------------------------------------------------------------------------|
A|--88888888-----------------------------------------------------------------|
E|------------88888888--3333333333333333-------------------------------------| X4

Fill

G|---------------------------------------------------------------------------|
D|---------------------------------------------------------------------------|
A|-----3--------3--------3--------3------------------------------------------|
E|--1-----3--1-----3--1-----3--1-----3---------------------------------------|

Verse/Chorus

G|---------------------------------------------------------------------------|
D|---------------------------------------------------------------------------|
A|--88888888-----------------------------------------------------------------|
E|------------88888888--3333333333333333-------------------------------------| X6

Fill

G|---------------------------------------------------------------------------|
D|---------------------------------------------------------------------------|
A|-----3--------3--------3--------3------------------------------------------|
E|--1-----3--1-----3--1-----3--1-----3---------------------------------------|

End

G|---------------------------------------------------------------------------|
D|---------------------------------------------------------------------------|
A|-----3---------------------------------------------------------------------|
E|--1-----8~-----------------------------------------------------------------|


| /  slide up
| \  slide down
| h  hammer-on
| p  pull-off
| ~  vibrato
| +  harmonic
| x  Mute note
===============================================================================
            
Submit corrections

↑ Back to top | Tablatures and chords for acoustic guitar and electric guitar, ukulele, drums are parodies/interpretations of the original songs. You may use it for private study, scholarship, research or language learning purposes only