Home » B » Bouncing Souls »

Bouncing Souls - Manthem Tabs

Artists:  A B C D E F G H I J K L M N O P Q R S T U V W X Y Z # 

Manthem Tabs

(ver. 3) Click to play this song!
Bouncing Souls
 Rating:
4/5 (4 votes)
                The other tab is all backwards and cr*p. I'll try to do my best with this one.

Bass plays this two times.

g|-------------------------------------------|
d|------------------------------------------.|
a|---5-5-5-5-5------------------------------.|
E|-/-----------0h3-3-3-3-3-5x-5-5-5-5-5-5-5--|

Bass keeps the same pattern going when Guitar 1. plays this twice.

  Fig. 1.
e|----------------------|
b|-333-3-3-3-3-3-3-3-3--|
g|---------------------.|
d|---------------------.|
a|----------------------|
E|----------------------|

Guitar 1. keeps the rythym going whe Guitar 2. comes in with this an plays it once 
the vocals come in.

Fig. 2.
       D5    G5    A5                       D5 A5 D5 A5
e|------------------------------------------------------|
b|------------------------------------------------------|
g|-x-x-7------------------------------------7-----7----.|
d|-x-x-7-x-x-5-x-x-7------x-7-7-7-7-7-7-7-7-7--7--7--7-.|
a|-x-x-5-x-x-5-x-x-7-7-7--x-7-7-7-7-7-7-7-7-5--7--5--7--|
E|-------x-x-3-x-x-5-5-5--x-5-5-5-5-5-5-5-5----5-----5--|

He keeps repeating this, but instead of making that "chuck" sound, he plays on all the 
notes. The chorus is Fig. 1. once then figure 2.

The rest of the song is these parts in a different order.

                                          Eric W.
            
Submit corrections

↑ Back to top | Tablatures and chords for acoustic guitar and electric guitar, ukulele, drums are parodies/interpretations of the original songs. You may use it for private study, scholarship, research or language learning purposes only