Home » B » Bouncing Souls »

Bouncing Souls - Manthem Tabs

Artists:  A B C D E F G H I J K L M N O P Q R S T U V W X Y Z # 

Manthem Tabs

(ver. 2) Click to play this song!
Bouncing Souls
 Rating:
4/5 (4 votes)
                -The Bouncing Souls
-Manthem

Intro Guitar 1 x2
e|------------------------------------
B|------------------------------------
G|-7h8-8-8-8—8-8-8-8-8-8-8-8-8-8-8-8--
D|------------------------------------
A|------------------------------------
E|------------------------------------

Guitar 2 come in with this after guitar 1 plays his thing through once
e|------------------
B|------------------x2
G|-7----------------
D|-7------5------7--
A|-5------5------7--
E|--------3------5—

Verse
e|------------------------------------
B|---------------------------------x2-
G|-7-7-7-7----------------------------
D|-7-7-7-7-5-5-5-5-7-7-7-7-7-7-7-7----
A|-5-5-5-5-5-5-5-5-7-7-7-7-7-7-7-7----
E|---------3-3-3-3-5-5-5-5-5-5-5-5----

e|-----------------------------------------------------------------
B|-----------------------------------------------------------------
G|-7-7-7-7---------7-7-7-7---------7-7-7-7-------------------------
D|-7-7-7-7-5-5-5-5-7-7-7-7-7-7-7-7-7-7-7-7-5-5-5-5-7-7-7-7-7-7-7-7-
A|-5-5-5-5-5-5-5-5-5-5-5-5-7-7-7-7-5-5-5-5-5-5-5-5-7-7-7-7-7-7-7-7-
E|---------3-3-3-3---------5-5-5-5---------3-3-3-3-5-5-5-5-5-5-5-5-

        Intro
        Verse
        Intro
Chorus
e|------------------------------------|--------------
B|---------------------------------x3-|--------x2----
G|-7-7-7-7----------------------------|-7------------
D|-7-7-7-7-5-5-5-5-7-7-7-7-7-7-7-7----|-7----5----7--
A|-5-5-5-5-5-5-5-5-7-7-7-7-7-7-7-7----|-5----5----7--
E|---------3-3-3-3-5-5-5-5-5-5-5-5----|------3----5--

        Verse
        Intro Without 1st Guitar 
        Chorus
Outro
e|---------------------------------
B|---------------------------------
G|-7-7-7-7-------------------------Then Intro
D|-7-7-7-7-5-5-5-5-7-7-7-7-7-7-7-7-
A|-5-5-5-5-5-5-5-5-7-7-7-7-7-7-7-7-
E|---------3-3-3-3-5-5-5-5-5-5-5-5-
            
Submit corrections

↑ Back to top | Tablatures and chords for acoustic guitar and electric guitar, ukulele, drums are parodies/interpretations of the original songs. You may use it for private study, scholarship, research or language learning purposes only