Home » B » Born Ruffians »

Born Ruffians - I Need A Life Bass

Artists:  A B C D E F G H I J K L M N O P Q R S T U V W X Y Z # 

I Need A Life Bass

(ver. 2) Click to play this song!
Born Ruffians
-------------------------------------------------------------------------------
			     I Need A Life - Born Ruffians
-------------------------------------------------------------------------------


Tuning: Standard (EADG)


Intro x2

G|-------------------------------------------------|
D|--------------2-22--2-22-------------------------|
A|--------------------------9-99--9-99--5-55--5-55-|
E|--5-55--5-55-------------------------------------|

if you think that E is too high try this

G|-------------------------------------------------|
D|-------------------------------------------------|
A|--------------7-77--7-77--9-99--9-99--5-55--5-55-|
E|--5-55--5-55-------------------------------------|

then play

G|-------------------------------------------------|
D|-------------------------------------------------|
A|-------------------------------------------------|
E|--5-55--5-55--5-55--5-55--5-55--5-55--5-55--5-55-|

G|-------------------------------------------------|
D|-------------------------------------------------|
A|--7-77--7-77--7-77--7-77--7-77--7-77--7-77--7-77-|
E|-------------------------------------------------|


G|-------------------------------------------------|
D|-------------------------------------------------|
A|--9-99--9-99--9-99--9-99--9-99--9-99--9-99--9-99-|
E|-------------------------------------------------|


G|-------------------------------------------------|
D|-------------------------------------------------|
A|--5-55--5-55--5-55--5-55--5-55--5-55--5-55--5-55-|
E|-------------------------------------------------|

short guitar fill then bass comes back in at 0:46

first line when the bass come back in is simply
G|-------------------------------------------------|
D|-------------------------------------------------|
A|--9-99--5-55-------------------------------------|
E|-------------------------------------------------|

the simple riff for this part is something like this  x5
G|-----------------------------------------------------|
D|----7------------------------------------------------|
A|------------9-99--5-55-------------------------------|
E|--5----0-00------------------------------------------|

now back to

G|-------------------------------------------------|
D|-------------------------------------------------|
A|-------------------------------------------------|
E|--5-55--5-55--5-55--5-55--5-55--5-55--5-55--5-55-|

G|-------------------------------------------------|
D|-------------------------------------------------|
A|--7-77--7-77--7-77--7-77--7-77--7-77--7-77--7-77-|
E|-------------------------------------------------|


G|-------------------------------------------------|
D|-------------------------------------------------|
A|--9-99--9-99--9-99--9-99--9-99--9-99--9-99--9-99-|
E|-------------------------------------------------|


G|-------------------------------------------------|
D|-------------------------------------------------|
A|--5-55--5-55--5-55--5-55--5-55--5-55--5-55--5-55-|
E|-------------------------------------------------|

then this riff again

G|-------------------------------------------------|
D|-------------------------------------------------|
A|--9-99--5-55-------------------------------------|
E|-------------------------------------------------|

G|-------------------------------------------------|  x5
D|----7--------------------------------------------|
A|------------9-99--5-55---------------------------|
E|--5----0-00--------------------------------------|

now into the breakdown part
its basically the same deal as before

(this first part is continued a bit longer than the previous times it was played in the song)
G|-------------------------------------------------|
D|-------------------------------------------------|
A|-------------------------------------------------|
E|--5-55--5-55--5-55--5-55--5-55--5-55--5-55--5-55-|

G|-------------------------------------------------|
D|-------------------------------------------------|
A|--7-77--7-77--7-77--7-77--7-77--7-77--7-77--7-77-|
E|-------------------------------------------------|


G|-------------------------------------------------|
D|-------------------------------------------------|
A|--9-99--9-99--9-99--9-99--9-99--9-99--9-99--9-99-|
E|-------------------------------------------------|


G|-------------------------------------------------|
D|-------------------------------------------------|
A|--5-55--5-55--5-55--5-55--5-55--5-55--5-55--5-55-|
E|-------------------------------------------------|
(repeat this previous part as necessary)

now for the last major part around 3:02

G|-------------------------------------------------|  x8
D|-------------------------------------------------|
A|----45/7-77-9-99-5-------------------------------|
E|--5----------------------------------------------|

right when that last part end we go back to
G|-------------------------------------------------|
D|-------------------------------------------------|
A|-------------------------------------------------|
E|--5-55--5-55--5-55--5-55--5-55-------------------|

hold the last note

and that should be it, you'll just have to get the right timing and feel for the song
if there's anything missing or you have any corrections to make feel free to send me an 
or comment on this tab


| /  slide up
| \  slide down
| h  hammer-on
| p  pull-off
| ~  vibrato
| +  harmonic
| x  Mute note
            
Submit corrections

↑ Back to top | Tablatures and chords for acoustic guitar and electric guitar, ukulele, drums are parodies/interpretations of the original songs. You may use it for private study, scholarship, research or language learning purposes only