Home » B » Born Ruffians »

Born Ruffians - I Need A Life Bass

Artists:  A B C D E F G H I J K L M N O P Q R S T U V W X Y Z # 

I Need A Life Bass

(ver. 1) Click to play this song!
Born Ruffians
i need a life
born ruffians

im pretty sure its right 90%

PART 1 intro/verse/chorus
G|---------------------------------------------------|
D|---------------------------------------------------|
A|-------------4-44--4-44-/9-99--9-99--5-55--5-55----|
E|--5-55--5-55---------------------------------------| x2


PART 2
(guitar enters) link up, just play A
G|-----------------------------------------------|
D|-----------------------------------------------|
A|-----------------------------------------------|
E|-5-55--5-55--5-55--5-55------------------------| X1


PART 3

dodgy bit (bass and guitar) on a closer listen tryin to work this out it dosent follow 
guitar pattern so its a bit weird, i think its right

(this bit comes in at the end of the guitar riff)
G|----------------------|
D|----------------------|
A|----------5-55--------|
E|---33-3---------------| x1

(then after that play the whole of the guitar riff)
G|---------------------------------------------------|
D|------7--------------------------------------------|
A|----------55-------5-55----------------------------|
E|--5-----------3-33---------------------------------| x6

PART 4 ending

G|------------------------|
D|----------44------------|
A|------44-----55---------|
E|--55--------------------| x8


structure

part 1 intro/verse

part 2 link up

part 1 chorus

part 3 dodgy bit

part 2 link up

part 1 chorus

part 3 dodgy bit

part 2 link up (4 times as much as he sing chorus over it)

part 1 chorus (but play each note twice as much)

part4 ending

and then finnaly end on a bit of a link up


please comment i think its right!!!!!!!!!!
            
Submit corrections

↑ Back to top | Tablatures and chords for acoustic guitar and electric guitar, ukulele, drums are parodies/interpretations of the original songs. You may use it for private study, scholarship, research or language learning purposes only