» » »

Bootsy Collins - Whats The Name Of This Town Bass

Artists:  A B C D E F G H I J K L M N O P Q R S T U V W X Y Z # 

Whats The Name Of This Town Bass

(ver. 1) Click to play this song!
Bootsy Collins
 Rating:
4/5 (4 votes)

 Whats The Name Of This Town lessons Tabs too difficult? Try these video lessons and learn fast
 
                art 1. Just repeat this a Lot throu teh whole song
E|------------------------------------------------------------------------------|
A|------------------------------------------------------------------------------|
D|----3/5\3-------------------------------3/5\3---------------------------------|
G|------------------------------------------------------------------------------|
What's the name of this town? Who's gonna blast this a motha down?
Part 2.
E|------------------------------------------------------------------------------|
A|-----------------------5--3--3-3------------------------5--3------------------|
D|---0--3--5-----5--3------------------0--3--5-----5--3-------------------------|
G|------------3---------------------------------3-------------------------------|


E|------------------------------------------------------------------------------|
A|-----------------------5--3-----------------------------5--3------------------|
D|---0--3--5-----5--3---------3-5------0--3--5-----5--3-------------------------|
G|------------3--------------------3------------3-------------------------------|

Part 3.
E|----------------6-------6--3------------------------------6--3----------------|
A|--------5---5-3---3---3-------------------5---5---5-3---3---------------------|
D|----5-3---3----------------5----------5-3---3---3------------5----------------|
G|--3---------------------------------3-----------------------------------------|

E|----------------6-------6--3------------------------------6--3-4-5-6-7-9-15\--|
A|--------5---5-3---3---3-------------------5---5---5-3---3---------------------|
D|----5-3---3----------------5----------5-3---3---3-----------------------------|
G|--3---------------------------------3-----------------------------------------|


Part 4.
E|--3---5---6-------------------------------------------------------------------|
A|-----------------------------------------10-------------10--------------------|
D|----5---7---8------------------12-8-10-8------12-8-10-8-----------------------|
G|------------------------------------------------------------------------------|

E|--3-6----------3-6---------3-6---------3-6------------------------------------|
A|-----------1-----------1-----------5-----------5------------------------------|
D|-------5-3---------5-3---------7-5---------7-5--------------------------------|
G|------------------------------------------------------------------------------|

<2x
E|--3-6----------3-6-------|-3-6---------3-6------------------------------------|
A|-----------1-----------1-|---------5-----------5------------------------------|
D|-------5-3---------5-3---|-----7-5---------7-5--------------------------------|
G|-------------------------|----------------------------------------------------|
            
Submit corrections


        Whats The Name Of This Town lessons Hard to play? Try these video lessons and learn fast Whats The Name Of This Town lessons
        
↑ Back to top | Tablatures and chords for acoustic guitar and electric guitar, ukulele, drums are parodies/interpretations of the original songs. You may use it for private study, scholarship, research or language learning purposes only