Home » B » Bootsy Collins »

Bootsy Collins - Id Rather Be With You Bass

Artists:  A B C D E F G H I J K L M N O P Q R S T U V W X Y Z # 

Id Rather Be With You Bass

(ver. 1) Click to play this song!
Bootsy Collins
Bootsy Space Bass Solo I'd Rather Be With You
This is the link to the song:

Standard Tuning
Key: E-Minor

/  = slide up
\  = slide down
h  = hammer on to
p  = pull off to
b  = bend up
x  = spank your bass very fast with your hand like it's a butt but don't play a note
x7 = spank it


First Part with envelope filter and delay
G|----------------------------------------------------------------|
D|-12--9-9--12-12-------7--5-7--5h7-5--5-5-5\---------------------|
A|----------------------------------------------------------------|
E|----------------------------------------------------------------|

G|-5-5-5-5-5\------------------------|
D|-----------x-x-x-x-x-x-x--x\-------|
A|-----------x-x-x-x-x-x-x--x\-------|
E|-----------x-x-x-x-x-x-x--x\-------|

G|-------------12-------------------------------------------------------|
D|-------12-14-----14----12h14-12---x-x-x-x-x-x-x--7h9-7----------------|
A|-12-14----------------------------x-x-x-x-x-x-x--------10-10--7--7\---|
E|----------------------------------x-x-x-x-x-x-x-----------------------|


G|-9--7------------------------------------|
D|------9-7-7-----7-7----------------------|
A|-------------10--------------------/12\--|
E|---------------------x7-x5-x3-x0---------|

G|------------------------12-14p12-12-11-12--------12-14b---------------|
D|---5-7-7/9-7-5\--/12-14--------------------12-14--------x-x-x-x-x-x-x-|
A|-7------------------------------------------------------x-x-x-x-x-x-x-|
E|--------------------------------------------------------x-x-x-x-x-x-x-|

G|-12\11-9-9h11-9-----|
D|--------------------|
A|--------------------|
E|--------------------|

Second Part, now add some fuzz/distortion
G|----------12--11-----------12h14-12---|
D|----12-14------------12-14------------|
A|-14---------------14------------------|
E|--------------------------------------|

G|-14---14--16-14-12----12----------12--|
D|-------------------14----14-14-14-----|
A|--------------------------------------|
E|--------------------------------------|

G|-----------12\11--11-12-14---------12-14-14/16--12-14-12---|
D|-----12-14-------------------12-14-------------------------|
A|-14--------------------------------------------------------|
E|-----------------------------------------------------------|

G|-7h9-7---------------------------------------------|
D|-------9--7-9-7---7h9-7----7----7-7h9-7-7----------|
A|------------------------10---10-----------10-7-----|
E|---------------------------------------------------|

G|----------14-12----14-12--14-12-14-12-14--12--14-12-14-12-----14-12-14-12---|
D|----12-14-------14-----------------------------------------14---------------|
A|-14-------------------------------------------------------------------------|
E|----------------------------------------------------------------------------|

G|-14-12-14-12--12----14-12-14-12--12-12-16-14-12-14-12----12-14-12-12-----12--|
D|-----------------14-----------------------------------14--------------14-----|
A|-----------------------------------------------------------------------------|
E|-----------------------------------------------------------------------------|

G|-14-12-14-12--14-12-14-12-14--12-14-12-14-12-14-16-14--12h14-16-14-12h14-16-14-12-14-16-----|
D|--------------------------------------------------------------------------------------------|
A|--------------------------------------------------------------------------------------------|
E|--------------------------------------------------------------------------------------------|

G|-14--12-14-12-11-12-11-9---7h9-7----7--------------------|
D|----------------------------------9---9--7-9-7-----------|
A|-----------------------------------------------10-7------|
E|---------------------------------------------------------|

G|-----------19---21---------------------------------------|
D|-19---21------------------14-17-14--14-------14-17-14----|
A|--------------------14-17--------------14-17-------------|
E|---------------------------------------------------------|

G|-----------19---21------------------------------------14-12--| 2x
D|-19---21------------------14-17-14--14-------14-17-14--------|
A|--------------------14-17--------------14-17-----------------|
E|-------------------------------------------------------------|


G|-----------19---21\--24-24-24-24-24-24-24-24-24-|
D|-19---21----------------------------------------|
A|------------------------------------------------|
E|------------------------------------------------|
if you don't have 24 fret's like i have, you can use
harmonics or if you really want to get wild, bend your
22nd fret way up =D (or play the whole thing an octave lower)

G|----------------------|
D|-5---5----------------|
A|---7---7----5---5-----|
E|----------7---7---7---|

G|----------------------------| 2x
D|----------------------------|
A|----------------------------|
E|-5-3-0--3-0-0--5-3-0--3-2-0-|
Freak out on this part

G|----------------x---x--x-----------12--|
D|---------------x--x--x--x----12-14-----|
A|----------------x--x--x-x--x-----------|
E|-5-3-0--3-0-0--x--x-x--x-x-------------|
Do random stuff here

G|-16--14-12-14---| 3x
D|----------------|
A|----------------|
E|----------------|

G|-16---h14--14-12-14-12-14-12-14-12-14-12------|
D|-----------------------------------------14---|
A|----------------------------------------------|
E|----------------------------------------------|

G|-12h14--12-14-12-14-12----12-----------x--xx-|
D|-----------------------14----14----x-x---x---|
A|-----------------------------------x--x--x--x|
E|---------------------------------x-----x--x--|
								More random stuff here

Third part without the distortion/fuzz/whateverthef**k
G|------------------------------------------------------------------| 4x
D|-----------------------------------7-------------------------9\---|
A|------3-5\---5-7\---5-7\----7-9-10----------7--7-9--9-10--10------|
E|-5\----------------------------------7-10-7-----------------------|

G|---------------7-9\---|
D|-9-9-9-9-9-9-9--------|
A|----------------------|
E|----------------------|


Enjoy and have fun(k)
            
Submit corrections

↑ Back to top | Tablatures and chords for acoustic guitar and electric guitar, ukulele, drums are parodies/interpretations of the original songs. You may use it for private study, scholarship, research or language learning purposes only