Home » B » Boney M »

Boney M - Mary's Boy Child Bass

Artists:  A B C D E F G H I J K L M N O P Q R S T U V W X Y Z # 

Mary's Boy Child Bass

(ver. 1) Click to play this song!
Boney M
Mary's Boy Child.btab
Boney M
TablEdited by Poppamies

 |   temop 112   |       |        |       |       |       |        
|------------------------1---2---|--------------------------------|
|2-----------2---2---4-----------|----2---------------------------|
|--------------------------------|------------4---0---0-------0---|
|--------------------------------|------------------------4-------|
 
 |       |       |       |        |       |       |       |        
|------------4-------------------|----1---------------------------|
|------------------------1---2---|------------4-------2-----------|
|2---------------2---4-----------|------------------------4---2---|
|--------------------------------|--------------------------------|
 
 |       |       |       |        |       |       |       |        
|--------------------------------|--------------------------------|
|2---2-------2---------------2---|--------------------4---2-------|
|--------------------2---4-------|0---0-------0---0-----------4---|
|--------------------------------|--------------------------------|
 
 |       |       |       |        |       |       |       |        
|--------------------------------|--------------------------------|
|--------------------1---4---1---|2---2-------2-----------1-------|
|2---2-------4-------------------|----------------2---4-------2---|
|--------------------------------|--------------------------------|
 
 |       |       |       |        |       |       |       |        
|--------------------------------|--------------------------------|
|2---2-------2---2-----------2---|--------------------4---2-------|
|--------------------2---4-------|0---0-------0---0-----------4---|
|--------------------------------|--------------------------------|
 
 |       |       |       |        |       |       |       |        
|--------------------------------|--------------------------------|
|--------------------------------|2---2-------2---2---------------|
|2---2-------2---2---2-------2---|--------------------2---4---2---|
|--------------------------------|--------------------------------|
 
 |       |       |       |        |       |       |       |        
|--------------------------------|--------------------------------|
|2---2-------2---2-----------1---|2---2---------------------------|
|--------------------2---4-------|------------2---0---0-------4---|
|--------------------------------|--------------------------------|
 
 |       |       |       |        |       |       |       |        
|--------------------------------|--------------------------------|
|------------4---2---2-----------|----------------4---4---4-------|
|2---2-------------------2---3/4-|4---4-------4---------------4---|
|--------------------------------|--------------------------------|
 
 |       |       |       |        |       |       |       |        
|--------4---2---4---------------|--------------------------------|
|----4-------------------4-------|2---2-------2---4---------------|
|2---------------------------2---|--------------------2---4---2---|
|--------------------------------|--------------------------------|
 
 |       |       |       |        |       |       |       |        
|--------------------------------|--------------------------------|
|--------------------4---2-------|--------------------------------|
|0---0-------0---0-----------4---|2---2-------2---2---2-------2---|
|--------------------------------|--------------------------------|
 
 |       |       |       |        |       |       |       |        
|--------------------------------|--------------------------------|
|2---2-------2-------------------|2---2---2---2---------------2---|
|----------------0-------2---2---|--------------------2---3/4-----|
|--------------------------------|--------------------------------|
 
 |       |       |       |        |       |       |       |        
|--------------------------------|--------------------------------|
|--------------------4---2-------|--------------------------------|
|0---0-------0---0-----------4---|2---2-------2---2---2-------2---|
|--------------------------------|--------------------------------|
 
 |       |       |       |        |       |       |       |        
|--------------------------------|--------------------------------|
|2---2-------2---------------1---|2---2---2---2-------------------|
|--------2-----------2---4-------|--------------------2---4---2---|
|--------------------------------|--------------------------------|
 
 |       |       |       |        
|--------------------------------|
|--------------------4---2-------|
|0---0---0---0---0-----------4---|
|------- and so on --------------|
 
            
Submit corrections

↑ Back to top | Tablatures and chords for acoustic guitar and electric guitar, ukulele, drums are parodies/interpretations of the original songs. You may use it for private study, scholarship, research or language learning purposes only