Home » B » Boney M »

Boney M - Custer Jammin Tabs

Artists:  A B C D E F G H I J K L M N O P Q R S T U V W X Y Z # 

Custer Jammin Tabs

(ver. 1) Click to play this song!
Boney M
 Rating:
2.8/5 (20 votes)
                e|----------------------|------------|------------------------|
B|-------0---1-0-----0--|---------0--|-------0---1-0-----0----|
G|--0-2------------2----|--2-2-2-----|--0-2------------2----0-|
D|----------------------|------------|------------------------|
A|----------------------|------------|------------------------|
E|----------------------|------------|------------------------|

here is another version with some hammer-on:

e|----------------------|------------|------------------------|
B|-------0---1-0-----0--|---------0--|-------0---1-0-----0----|
G|--0h2------------2----|--2-2-2-----|--0h2------------2----0-|
D|----------------------|------------|------------------------|
A|----------------------|------------|------------------------|
E|----------------------|------------|------------------------|
            
Submit corrections

↑ Back to top | Tablatures and chords for acoustic guitar and electric guitar, ukulele, drums are parodies/interpretations of the original songs. You may use it for private study, scholarship, research or language learning purposes only