Home » B » Bone Thugs N Harmony »

Bone Thugs N Harmony - Tha Crossroads Tabs

Artists:  A B C D E F G H I J K L M N O P Q R S T U V W X Y Z # 

Tha Crossroads Tabs

(ver. 2) Click to play this song!
Bone Thugs N Harmony



Standard Tuning

--------|-17/19-------17/19---17/19\17/19----17/19---|--|---------------------|
--------|--------------------------------------------|--|---------------------|
--------|--------------------------------------------|--|---------------------|
--------|----------21---------------------21---------|--|---------------------|
--------|--------------------------------------------|--|---------------------|
--------|--------------------------------------------|--|---------------------|
       Intro arranged for guitar

--------|-------------------------------|-------------------------------------|
--------|-------------------------------|-------------------------------------|
--------|-9-----------------------------|-------------------------------------|
--------|-9-----------------------------|-------------------------------------|
--------|-7-----------------------------|-------------------------------------|
--------|-x-----------------------------|-------------------------------------|
       Intro Chord Strum "Bone Bone..."

--------|---------------|--|----------------------------|
        |---------------|--|----------------------------|
--------|-9------4------|--|----------------------------|
--------|-9------x------|--|----------------------------|
--------|-7------2------|--|----------------------------|
--------|-x-------------|--|----------------------------|
       Verse/Chorus Strum Chords
            
Submit corrections

↑ Back to top | Tablatures and chords for acoustic guitar and electric guitar, ukulele, drums are parodies/interpretations of the original songs. You may use it for private study, scholarship, research or language learning purposes only