Home » B » Bobby Hebb »

Bobby Hebb - Sunny Bass

Artists:  A B C D E F G H I J K L M N O P Q R S T U V W X Y Z # 

Sunny Bass

(ver. 3) Click to play this song!
Bobby Hebb
Gtr I (E A D G) - 'Bass'


              1st & 2nd Verses
  Q=126
 4/4
  Gtr I
  W            Q  E E Q  E E   Q  E E Q  E E   Q  E E Q  E E   Q  E E Q  E E
|----------||----------------|---------------|-5----5-5----5-|--------4----4--|
|----------||o-2----2-2----2-|-5----5-5----5-|---------------|-4----4---------|
|----------||o---------------|---------------|---------------|----------------|
|----------||----------------|---------------|---------------|----------------|


  Q  E E Q  E E   Q  E E Q  E E   Q  E E Q  E E   Q  E E Q  E E
|---------------|---------------|-5----5-5----5-|--------4----4-|
|-2----2-2----2-|-5----5-5----5-|---------------|-4----4----4---|
|---------------|---------------|---------------|---------------|
|---------------|---------------|---------------|---------------|


  Q  E E Q  E E   Q  E E Q  E E   Q  E E Q  E E   Q  E E Q  E E
|---------------|---------------|-5----5-5----5-|---------------|
|-2----2-2----2-|-5----5-5----5-|---------------|-3----3-3----3-|
|---------------|---------------|---------------|---------------|
|---------------|---------------|---------------|---------------|


  Q  E E Q  E E   Q  E E Q  E E   Q  E E Q  E E
|---------------|-4----4-4----4-|---------------|
|-4----4-4----4-|---------------|-2----2-2----2-|
|---------------|---------------|---------------|
|---------------|---------------|---------------|


 1.                2.
  Q  E E Q  E E     E E E E E E E E
|----------------||---5-5-5-5-5-5-5-||
|-2----2-2----2-o||-----------------||
|---------------o||-----------------||
|----------------||-----------------||


 3rd Verse
  Q  E E Q  E E   Q  E E Q  E E   Q  E E Q  E E   Q  E E Q  E E
|---------------|---------------|-6----6-6----6-|--------5----5--|
|-3----3-3----3-|-6----6-6----6-|---------------|-5----5----5----|
|---------------|---------------|---------------|----------------|
|---------------|---------------|---------------|----------------|


  Q  E E Q  E E   Q  E E Q  E E   Q  E E Q  E E   Q  E E Q  E E
|---------------|---------------|-6----6-6----6-|--------5----5--|
|-3----3-3----3-|-6----6-6----6-|---------------|-5----5----5----|
|---------------|---------------|---------------|----------------|
|---------------|---------------|---------------|----------------|


  Q  E E Q  E E   Q  E E Q  E E   Q  E E Q  E E   Q  E E Q  E E
|---------------|---------------|-6----6-6----6-|----------------|
|-3----3-3----3-|-6----6-6----6-|---------------|-4----4-4----4--|
|---------------|---------------|---------------|----------------|
|---------------|---------------|---------------|----------------|


  Q  E E Q  E E   Q  E E Q  E E   Q  E E Q  E E   E E E E E E E E
|---------------|-5----5-5----5-|---------------|---6-6-6-6-6-6-6--||
|-5----5-5----5-|---------------|-3----3-3----3-|------------------||
|---------------|---------------|---------------|------------------||
|---------------|---------------|---------------|------------------||


 4th Verse
  Q  E E Q  E E   Q  E E Q  E E   Q  E E Q  E E   Q  E E Q  E E
|---------------|---------------|-7----7-7----7-|--------6----6--|
|-4----4-4----4-|-7----7-7----7-|---------------|-6----6----6----|
|---------------|---------------|---------------|----------------|
|---------------|---------------|---------------|----------------|


  Q  E E Q  E E   Q  E E Q  E E   Q  E E Q  E E   Q  E E Q  E E
|---------------|---------------|-7----7-7----7-|--------6----6--|
|-4----4-4----4-|-7----7-7----7-|---------------|-6----6----6----|
|---------------|---------------|---------------|----------------|
|---------------|---------------|---------------|----------------|


  Q  E E Q  E E   Q  E E Q  E E   Q  E E Q  E E   Q  E E Q  E E
|---------------|---------------|-7----7-7----7-|----------------|
|-4----4-4----4-|-7----7-7----7-|---------------|-5----5-5----5--|
|---------------|---------------|---------------|----------------|
|---------------|---------------|---------------|----------------|


  Q  E E Q  E E   Q  E E Q  E E   Q  E E Q  E E   E E E E E E E E
|---------------|-6----6-6----6-|---------------|---7-7-7-7-7-7-7--||
|-6----6-6----6-|---------------|-4----4-4----4-|------------------||
|---------------|---------------|---------------|------------------||
|---------------|---------------|---------------|------------------||


 5th Verse
  Q  E E Q  E E   Q  E E Q  E E   Q  E E Q  E E   Q  E E Q  E E
|---------------|---------------|-8----8-8----8-|--------7----7--|
|-5----5-5----5-|-8----8-8----8-|---------------|-7----7----7----|
|---------------|---------------|---------------|----------------|
|---------------|---------------|---------------|----------------|


  Q  E E Q  E E   Q  E E Q  E E   Q  E E Q  E E   Q  E E Q  E E
|---------------|---------------|-8----8-8----8-|--------7----7--|
|-5----5-5----5-|-8----8-8----8-|---------------|-7----7----7----|
|---------------|---------------|---------------|----------------|
|---------------|---------------|---------------|----------------|


  Q  E E Q  E E   Q  E E Q  E E   Q  E E Q  E E   Q  E E Q  E E
|---------------|---------------|-8----8-8----8-|----------------|
|-5----5-5----5-|-8----8-8----8-|---------------|-6----6-6----6--|
|---------------|---------------|---------------|----------------|
|---------------|---------------|---------------|----------------|


                               Outro
  Q  E E Q  E E   Q  Q  H       Q  E E Q  E E   Q  E E Q  E E
|---------------|-7----------||---------------|-5----5-7----7--|
|-7----7-7----7-|------------||-5----5-5----5-|----------------|
|---------------|------------||---------------|----------------|
|---------------|------------||---------------|----------------|


  Q  E E Q  E E   Q  E E Q  E E   Q  E E Q  E E   Q  E E Q  E E
|---------------|-5----5-7----7-|---------------|-5----5-7----7--*|
|-5----5-5----5-|---------------|-5----5-5----5-|----------------*|
|---------------|---------------|---------------|----------------*|
|---------------|---------------|---------------|----------------*|
            
Submit corrections

↑ Back to top | Tablatures and chords for acoustic guitar and electric guitar, ukulele, drums are parodies/interpretations of the original songs. You may use it for private study, scholarship, research or language learning purposes only