» » »

Bobby Hebb - Sunny Tabs

Artists:  A B C D E F G H I J K L M N O P Q R S T U V W X Y Z # 

Sunny Tabs

(ver. 2) Click to play this song!
Bobby Hebb
 Rating:
4/5 (4 votes)

 Sunny lessons Tabs too difficult? Try these video lessons and learn fast
 
                Gtr I (E A D G B E) - 'Electric Guitar'


              1st & 2nd Verses
  Q=126
  N.C.            Em
 4/4
  Gtr I
  W            Q  E E Q  E E   Q  E E Q  E E
|----------||-----7------7---|----7------7---|
|----------||o----8------8---|----8------8---|
|----------||-----9------9---|----9------9---|
|----------||----------------|---------------|
|----------||o---------------|---------------|
|----------||----------------|---------------|


                     F#m     F#m6
  Q  E E Q  E E   Q   E E Q   E E
|----7------7---|-----9------11----|
|----8------8---|----10------10----|
|----9------9---|----11------11----|
|---------------|------------------|
|---------------|------------------|
|---------------|------------------|


     Em              Bm/F              Em              F#m     F#m6
  Q  E E Q  E E   Q   E E Q   E E   Q  E E Q  E E   Q   E E Q   E E
|----7------7---|----10------10---|----7------7---|-----9------11---|
|----8------8---|----12------12---|----8------8---|----10------10---|
|----9------9---|----10------10---|----9------9---|----11------11---|
|---------------|-----------------|---------------|-----------------|
|---------------|-----------------|---------------|-----------------|
|---------------|-----------------|---------------|-----------------|


     Em              Fsus2             Em              Am/Eb
  Q  E E Q  E E   Q   E E Q   E E   Q  E E Q  E E   Q   E E Q   E E
|----7------7---|-----------------|----7------7---|-----8-------8---|
|----8------8---|-----8-------8---|----8------8---|----10------10---|
|----9------9---|----10------10---|----9------9---|-----8-------8---|
|---------------|-----------------|---------------|-----------------|
|---------------|-----------------|---------------|-----------------|
|---------------|-----------------|---------------|-----------------|


     F#m               F#m6              Em
  Q   E E Q   E E   Q   E E Q   E E   Q  E E Q  E E
|-----9-------9---|----11------11---|----7------7---|
|----10------10---|----10------10---|----8------8---|
|----11------11---|----11------11---|----9------9---|
|-----------------|-----------------|---------------|
|-----------------|-----------------|---------------|
|-----------------|-----------------|---------------|


 1.                2.
                      C7
  Q  E E Q  E E     E E E E E E E E
|----7------7----||-----------------||
|----8------8---o||---1-1-1-1-1-1-1-||
|----9------9----||---3-3-3-3-3-3-3-||
|----------------||---2-2-2-2-2-2-2-||
|---------------o||---3-3-3-3-3-3-3-||
|----------------||-----------------||


 3rd Verse
  Fm               Ab7                Dbmaj7     Bb      C7
                                         |-3-|
  E E Q  E E E E   E E Q  E Q  E   Q  Q  Q Q Q   H    Q  E E
|----------------|---------------|-------------|-------------|
|-1-1-1--x-1-1-1-|-----6----4----|----6----4-4-|-3-------1---|
|-1-1-1--x-1-1-1-|-5-5-5----5----|----5--------|-3-------3---|
|-3-3-3--x-3-3-3-|-4-4-4----4----|----6--------|-3-------2---|
|-3-3-3--x-3-3-3-|---------------|----4--------|---------3---|
|----------------|---------------|-------------|-------------|


  Fm               Ab7              Dbmaj7
  E E Q  E E E E   E E Q  E E E E   E E Q  E Q  E   E Q  E E E E E
|----------------|----------------|---------------|-----------------|
|-1-1-1--x-1-1-1-|-----6--x-4-4-4-|-6-6-6--x-6----|---3----1-1-1-0--|
|-1-1-1--x-1-1-1-|-5-5-5--x-5-5-5-|-5-5-5--x-5----|---3----3-3-3----|
|-3-3-3--x-3-3-3-|-4-4-4--x-4-4-4-|-6-6-6--x-6----|---3----2-2-2----|
|-3-3-3--x-3-3-3-|----------------|-4-4-4--x-4----|--------3-3-3----|
|----------------|----------------|---------------|-----------------|


     Fm              Ab7            DbmaAb           Gb7
  Q  E E Q  E E   Q  E E Q  E E   E E E E E Q  E   E E E E E Q  E
|----1------1---|----4----------|----------------|-----------------|
|----1------1---|----4---4--4---|---6-6-4---4----|---4-4-4---4--4--|
|----1------1---|----5---5--5---|---5-5-5---5----|---3-3-3---3--3--|
|----3------3---|----4---4--4---|---6-6-6---6----|---2-2-2---2--2--|
|---------------|---------------|----------------|-----------------|
|---------------|---------------|----------------|-----------------|


  Bb               C7                  Fm             Db7
  Q  E E E E E E   Q  E E E E E E   Q  E E Q  E E   E E E E E E E E
|----------------|----------------|----1---1--1-1-|-----------4------||
|-3--3---3-3-3---|-1--1---1-1-1-1-|----1---1--1-1-|-------2-----2----||
|-3--3---3-3-3---|-3--3---3-3-3-3-|----1---1--1-1-|-----4---4-----4--||
|-3--3---3-3-3---|-2--2---2-2-2-2-|----3---3--3-3-|---3--------------||
|----------------|-3--3---3-3-3-3-|---------------|------------------||
|----------------|----------------|---------------|------------------||


 4th Verse
  Fm                 N.C.           D               B      C#7
  Q  E E E E E E   E E E E Q  E E   Q  E E E E Q    E Q  E E E E E
|----------------|-------3--------|---------------|-----------------|
|-2--2-----------|---2-5---5--5-x-|-7--7---7-7----|-4-4--4-2-2-2----|
|-2--2---2---2---|----------------|-7--7---7-7----|-4-4--4-4-4-4----|
|-4--4---------4-|----------------|-7--7---7-7----|-4-4--4-3-3-3----|
|----------------|----------------|---------------|-----------------|
|----------------|----------------|---------------|-----------------|


  Fm                                        D               N.C.
  Q  E E E E E E   E E E E     +E  Q  E   E Q.   E Q  E   E   Q.    E E  Q
|----------------|-----3-3b3.5-(3)------|---5------9--7-|---/12---------------|
|-2--2-----------|---5-------------5----|---7------7--7-|---/14----12---12\---|
|-2--2---2---2---|----------------------|---7-----------|----------14---14\---|
|-4--4---------4-|----------------------|---------------|---------------------|
|----------------|----------------------|---------------|---------------------|
|----------------|----------------------|---------------|---------------------|


  Fm
  Q  E E Q  E E   Q      Q  Q      Q
|---------------|---------------------|
|-2--2---2--2---|---------------------|
|-2--2---2--2---|-4b4.5-----4b4.5-----|
|-4--4---4--4---|---------------------|
|---------------|---------------------|
|---------------|---------------------|


  Dm7
  Q  E E E Q  E   Q  E E E S    +S  +E  E
|---------------|-------------------------|
|--------5-5--5-|-3--3-----5b6==(5)r(5)-3-|
|-6--6---6-6--6-|-4--4--------------------|
|-7--7---7-7--7-|-3--3--------------------|
|-5--5----------|-------------------------|
|---------------|-------------------------|


  B                C#7                N.C.
  Q  E E E E E E   Q  E E E E E E   E E E E E E Q    E E E S S Q  E E
|----------------|----------4-1---|----------------|------------------||
|-4--4-----4-----|-2--2---2-------|----------------|-7---------7------||
|-4--4-------4---|-4--4-----------|---2---2-4------|-5-------5------5-||
|-4--4---4-----4-|-3--3-----------|-----4----------|-7-----7--------7-||
|----------------|-4--4-----------|----------------|-5---5------------||
|----------------|----------------|----------------|------------------||


 5th Verse
  Gm           N.C.                                  C       D7
  Q  E E E E E E   E E E E E E E E   Q  E E E E Q    E E E E E E E E
|----------------|-----------6-----|---------------|------------------|
|-3--3---3-3---7s|=8-8-7-------8---|----8---8-8----|-5-5-5---3-3-3----|
|-3--3---3-3---6s|=7-7-6-----------|----8---8-8----|-5-5-5---5-5-5----|
|-5--5---5-5-----|-----------------|---------------|-5-5-5---4-4-4----|
|-5--5---5-5-----|-----------------|---------------|------------------|
|----------------|-----------------|---------------|------------------|


  Gm              Bb7             Ebmaj7          C        D7
  E E Q  E Q  E   Q  E E Q  E E   Q  E E E Q  E   Q  E E E Q  E
|---------------|---------------|---------------|----------------|
|-3-3-3--3-3--3-|-6--6------5s6-|-8--8-----6--6-|-5--5-----3--3--|
|-3-3-3--3-3--3-|-7--7------6s7-|-7--7-----7--7-|-5--5-----5--5--|
|-5-5-5--5-5--5-|-6--6----------|-8--8-----8--8-|-5--5-----4--4--|
|---------------|---------------|---------------|----------------|
|---------------|---------------|---------------|----------------|


     N.C.
                                              |-3-|
  Q  E E +E  E E E   E Q  E S E. E E   Q  E E Q Q Q   Q  Q  Q  Q
|------------------|----------3--2-1-|--------------|-------------|
|----3-------3-----|---3--3----------|-3----3-6-6-6-|----6--4--7--|
|------3-(3)---3---|-----------------|-3----3-7-7-7-|----7--5--8--|
|------------------|-----------------|--------------|-------------|
|------------------|-----------------|--------------|-------------|
|------------------|-----------------|--------------|-------------|


                                 Outro
                                     Gm
  Q  E E E E E E   E E Q  H       Q  E E Q  E E   Q  E E E E Q
|----------------|-------------||---------------|----------------|
|----5---5---5---|-7-----------||----3----------|----------5-----|
|----------------|-------------||----3---3--5---|----5-----------|
|------5---5-----|-------------||----5---5--5---|----5-----------|
|----------------|-------------||---------------|----------------|
|----------------|-------------||---------------|----------------|


                   N.C.
  Q  E E H      Q  E  E E E E E   Q  E E E E E E   Q  E E E E E E
|-------------|-------------8---|----6---6---6---|----5-----5-8-5--*|
|-------------|----8-10---8---8-|----8---8---8---|-----------------*|
|----3---3----|-----------------|----------------|-----------------*|
|----5---5----|-----------------|----------------|-----------------*|
|-------------|-----------------|----------------|-----------------*|
|-------------|-----------------|----------------|-----------------*|
            
Submit corrections


        Sunny lessons Hard to play? Try these video lessons and learn fast Sunny lessons
        
↑ Back to top | Tablatures and chords for acoustic guitar and electric guitar, ukulele, drums are parodies/interpretations of the original songs. You may use it for private study, scholarship, research or language learning purposes only