» » »

Blues Brothers - Sweet Home Chicago Chords

Artists:  A B C D E F G H I J K L M N O P Q R S T U V W X Y Z # 

Sweet Home Chicago Chords

(ver. 2) Click to play this song!
Blues Brothers
 Rating:
4.3/5 (10 votes)

 Sweet Home Chicago lessons Tabs too difficult? Try these video lessons and learn fast
 
                [Intro]
e|-9/10-10-10-10-10-9--|---9/10-10-10-10-10-9--7------|
B|10/12-12-12-12-12-10-|---10/12-12-12-12-12-10-8-----|
G|---------------------|----------------------------9-|
D|---------------------|------------------------------|
A|---------------------|------------------------------|
E|---------------------|------------------------------|

e|---4-----3-----2-----1---0--------|
B|-4---4\3---3\2---2\1---1p0--------|
G|----------------------------------|
D|----------------------------------|
A|----------------------------0-1-2-|
E|----------------------------------|

E
Come on
E
Oh baby don't you wanna go
       A
Come on
                          E
Oh baby don't you wanna go
             B              A
Back to that same old place
                  E
Sweet home Chicago

      E
Well, one and one is two
E
Six and two is eight
E                      A
Come on baby don't ya make me late
       A
Hidehey
                      E 
Baby dont you wanna go
            B              A
Back to that same old place
                  E
Sweet home Chicago

[Trumpet Riff]
e|--9--10--9---7--9---10---9--7--|
B|-10--12--10--8--10--12--10--8--|
G|-------------------------------|
D|-------------------------------|
A|-------------------------------|
E|-------------------------------|

[Solo]
|E|E|E|E|
|A|A|E|E|
|B|A|E|E|            
Submit corrections


        Sweet Home Chicago lessons Hard to play? Try these video lessons and learn fast Sweet Home Chicago lessons
        
↑ Back to top | Tablatures and chords for acoustic guitar and electric guitar, ukulele, drums are parodies/interpretations of the original songs. You may use it for private study, scholarship, research or language learning purposes only