Home » B » Blues Brothers »

Blues Brothers - Who's Making Love Bass

Artists:  A B C D E F G H I J K L M N O P Q R S T U V W X Y Z # 

Who's Making Love Bass

(ver. 1) Click to play this song!
Blues Brothers
band: Blues Brothers
originally done by: Johnny Taylor

verse
G------------------------------------------------|
D------4--4---------4--------4--4-7-7-9-9-7--4---|
A--4-6-------6-4-6------4-6----------------------|
E------------------------------------------------|

chorus
G-----------------------------------------|
D-----------------------------------------|
A--66666666-------------------------------|
E-----------66666666-44444444-7777-9999---|

bridge 1 (I know there are some women, guilty of this too...)
G---------------------------------------------------------------------------------|
D---------------------------------------------------------------------------------|
A------------------------------------------44444444-55555555----------7777-4444---|
E--2-2-------2-2-------2-2-------2-2-------------------------55555555-------------|

bridge 2
G---------------------------------|
D--4------4-------------------2---|
A-----------5------5/2------------|
E---------------------------------|

G------------------------------------------------|
D--4------4-------------------22-22-22-2-0-2-3---|
A-----------5------5/2---------------------------|
E------------------------------------------------|

G------------------------------------------------|
D--44444444-------------------22-22-22-2-0-2-3---|
A-----------55555555-22222222--------------------|
E------------------------------------------------|

G------------------------------------------------|
D--44444444-------------------22-22-22-2-2-2-2---|
A-----------55555555-22222222--------------------|
E------------------------------------------------|

I'm not too sure about bridge 1, but I think this is correct for the most part.
            
Submit corrections

↑ Back to top | Tablatures and chords for acoustic guitar and electric guitar, ukulele, drums are parodies/interpretations of the original songs. You may use it for private study, scholarship, research or language learning purposes only