Home » B » Blues Brothers »

Blues Brothers - Rawhide Bass

Artists:  A B C D E F G H I J K L M N O P Q R S T U V W X Y Z # 

Rawhide Bass
Version #2
Blues Brothers


Copy URL
Tuning Standard
I didnt know wat to name the parts, so i used letters.

       A:             x19            B:                                           x1
       G]--------                    G]--------5------5-------5-------5-------|
       D]--------                    D]----4-5-----4-5----4-5-----4-5---------|
       A]----6-7-                    A]-----------------------------------6-7-|
       E]5-------                    E]5--------------------------------------|

C:
G]------------------------------------------------------------------|
D]7-------7-----------5---7-----7-5-------5/2-----3-2-------2-----5-|
A]----7-------7-5-7-----------7-----------------3-------2-------7---|
E]------------------------------------------------------------------|

continued:                                                           x1
G]----------------------------------------------------------------|
D]7-------7-----------5---7---------------7---5---7-------7-------|
A]----7-------7-5-7-----------7---5-----5-------------6-7-----6-7-|
E]----------------------------------------------------------------|

D:(Move um on, hit um up, hit um up, move um on)                    x1
G]----------------------------------------------------------------|  then A x2
D]----------------------------------------------------------------|
A]------5-7---7-7-------5-7---7-7-------5-7---7-7-----6-7-8---7---|
E]5---8-----------5---8-----------5---8-----------5---------------|

Key Change:  x1     E:           x8     F:
x1
G]--------          G]--------          G]--------6-------6-------6-------6-6-5---|
D]--------          D]--------          D]----5-6-----5-6-----5-6-----5-6-------8-|
A]----7-8-          A]----7-8-          A]----------------------------------------|
E]5-------          E]6-------          E]6---------------------------------------|

G:        x1
G]------------------------------------------------------------------|
D]8-------8-----------6---8-----8-6-------6/3-----4-3-------3-3---6-|
A]----8-------8-6-8-----------8-----------------4-------3-------8---|
E]------------------------------------------------------------------|

H:      x1
G]----------------------------------------------------------------|
D]8-------8-----------6---8---------------8---6---8-------8-------|
A]----8-------8-6-8-----------8-7-6-----6-------------7-8-----7-8-|
E]----------------------------------------------------------------|

I:                                                                x1
G]------------------------------------------------------------|  E x2
D]------------------------------------------------------------|
A]------6-8---8-8-------6-8---8-8-------6-8---8-8-----7-8-9-8-|
E]6---9-----------6---9-----------6---9-----------6-----------|

J:          x6        Then F x1          Ending
G]--------              H x1             G]--------|
D]8-------              I x1             D]--------|
A]----7-8-              E x1             A]--------|
E]--------              J x7             E]6-------|        RAWHIDE!!!
            
Submit corrections

↑ Back to top | Tablatures and chords for acoustic guitar and electric guitar, ukulele, drums are parodies/interpretations of the original songs. You may use it for private study, scholarship, research or language learning purposes only