» » »

Blonde Redhead - Tabs

Artists:  A B C D E F G H I J K L M N O P Q R S T U V W X Y Z # 

Tabs

(ver. 1) Click to play this song!
Blonde Redhead
 Rating:
4.3/5 (13 votes)


  lessons Tabs too difficult? Try these video lessons and learn fast
 
                  Gdim/C#
e|---------------------------------------------------------------------------|
B|---------------------------------------------------------------------------|
G|----3-----3-----3-----3-----3-----3-----3-----3----------------------------|
D|-------5-----------5-----------5-----------5-------------------------------|
A|-4-----------4-----------4-----------4-------------------------------------|
E|---------------------------------------------------------------------------|
  Fm/C                                       Fm7/D#
e|---------------------------------------------------------------------------|
B|---------------------------------------------------------------------------|
G|----1-----1-----1-----1-----1-----1-----1----------------------------------|
D|-------3-----------3-----------3--------------6----------------------------|
A|-3-----------3-----------3-----------3-----6-------------------------------|
E|---------------------------------------------------------------------------|
  Ddim                     G#dim/D
e|---------------------------------------------------------------------------|
B|---------------------------------------------------------------------------|
G|----------------------------4-----4-----4-----4----------------------------|
D|----6--3--6-----6--3--6--------6-----------6-------------------------------|
A|-5-----------5-----------5-----------5-------------------------------------|
E|---------------------------------------------------------------------------|
  C5           A#m/C#      Fm/C        G5/D
e|---------------------------------------------------------------------------|
B|---------------------------------------------------------------------------|
G|-5-----5-----3-----3-----1-----1-----0-----0-------------------------------|
D|-5--5-----5--3--3-----3--3--3-----3--0--0-----0----------------------------|
A|-3-----------4-----------3-----------5-------------------------------------|
E|---------------------------------------------------------------------------|
  G#/D#                    A#/D        G/D
e|---------------------------------------------------------------------------|
B|-------------------------3-------------------------------------------------|
G|----5-----5-----5-----5-----3-----3--7-------------------------------------|
D|-------6-----------6-----------3--------9--5--9----------------------------|
A|-6-----------6-----------5-----------5-------------------------------------|
E|---------------------------------------------------------------------------|            
Submit corrections



         lessons Hard to play? Try these video lessons and learn fast  lessons
        
↑ Back to top | Tablatures and chords for acoustic guitar and electric guitar, ukulele, drums are parodies/interpretations of the original songs. You may use it for private study, scholarship, research or language learning purposes only