» » »

Bloc Party - Where Is Home Bass

Artists:  A B C D E F G H I J K L M N O P Q R S T U V W X Y Z # 

Where Is Home Bass

(ver. 1) Click to play this song!
Bloc Party
 Rating:
4/5 (4 votes)

 Where Is Home lessons Tabs too difficult? Try these video lessons and learn fast
 
                

============================================================================

Chorus (2:06 - 2:34)

G|------------------------|------------------------|------------------------|
D|------------------------|------------------------|------------------------|
A|------------1--1--3--4--|1--1--1--1--1-----1--1--|6--6--6--6--6--6--8--8--|
E|------------------------|---------------1--------|------------------------|

G|------------------------|------------------------| 
D|------------------------|------------------------|
A|1--1--1--1--1-----1--1--|6--6--6--6--6--6--8--8--| X7
E|---------------1--------|------------------------|

Verse (2:34 - 3:00)

G|------------------------|------------------------|------------------------|
D|------------------------|------------------------|------------------------|
A|------------------------|------------------------|------------------------|
E|------------------------|------------------------|------------------------|

G|------------------------|
D|------------------------|
A|------------1--1--3--4\1| All X4
E|------------------------|

Bridge (3:00 - 3:26)

G|------------------------|------------------------|------------------------|
D|------------------------|------------------------|------------------------|
A|------4-----------------|------4-----------------|------6-----------------|
E|---2-----------2--4--2--|---2-----------2--4--2--|---4-----------4--6--4--|

G|------------------------|
D|------------------------|
A|------6-----------------| All X3
E|---4-----------4--6--4--|

G|------------------------|------------------------|------------------------|
D|------------------------|------------------------|------------------------|
A|------4-----------------|------4-----------------|------6-----------------|
E|---2-----------2--4--2--|---2-----------2--4--2--|---4-----------4--6--4--|

G|------------------------|
D|------------------------|
A|------6-----------------| 
E|---4-----4--------------|

Chorus (3:26 - 3:52)

G|------------------------|------------------------| 
D|------------------------|------------------------|
A|1--1--1--1--1-----1--1--|6--6--6--6--6--6--8--8--| X8
E|---------------1--------|------------------------|

Chorus (3:59 - 4:25)

G|------------------------|------------------------|------------------------| 
D|------------------------|------------------------|------------------------|
A|------------------------|------------------1--1--|6--6--6--6--6--6--8--8--| 
E|---------------------1/-|6--6--6--6--6--1--------|------------------------|

G|------------------------|------------------------| 
D|------------------------|------------------------|
A|1--1--1--1--1-----1--1--|6--6--6--6--6--6--8--8--| X7
E|---------------1--------|------------------------|

=============================================================================

Note:
> Each 6 dashes (-) is one beat per bar
> The Bridge starts on the and (+) of 1
> Sections marked "All X#" means that all preceding bars should be played the 
amount of times indicated
> \ = Slide Down, / = Slide Up
            
Submit corrections


        Where Is Home lessons Hard to play? Try these video lessons and learn fast Where Is Home lessons
        
↑ Back to top | Tablatures and chords for acoustic guitar and electric guitar, ukulele, drums are parodies/interpretations of the original songs. You may use it for private study, scholarship, research or language learning purposes only