» » »

Bloc Party - Virtue Bass

Artists:  A B C D E F G H I J K L M N O P Q R S T U V W X Y Z # 

Virtue Bass

(ver. 1) Click to play this song!
Bloc Party
 Rating:
4.3/5 (26 votes)

 Virtue lessons Tabs too difficult? Try these video lessons and learn fast
 
                [Verse]

G|---------------------------------------------------------------------------|
D|----14~~-------7~~--------14~~--------7~-----------------------------------| 2x
A|----0~~~-------8~~--------0~~~--------8~~----------------------------------|
D|---------------------------------------------------------------------------|

G|---------------------------------------------------------------------------|
D|-----------------------------10-----------10-------------------------------|
A|-----0-0-3-5-0-------\15-8-8----8------8----8--8-10\-----------------------|  2x
D|---------------------------------------------------------------------------|

[Pre-Chorus]

G|----------------------------------------------------------------------------------------------------|
D|----------------------------------------------------------------------------------------------------|
A|---0-0-0-0-3-3-3-3------------------0-0-0-0-0-0-0-0-3-3-3-3-3-3-3-3---------------------------------|
D|-------------------3-3-3-3-0-0-0-0----------------------------------3-3-3-3-3-3-3-3-0-0-0-0-0-0-0-0-|

[Chorus]

G|---------------------------------------------------------------------------|
D|---------------------------------------------------------------3-2---------|
A|---0-0-0-0-0-0-0---3-3-3-3-3-3-3-3-0-0-0-0-0-0-0-0---3-3-3-3-3-----3-------|
D|-----------------5---------------------------------5-----------------------| \
                                                                                2x 
G|---------------------------------------------------------------------------| /
D|-------------------------------------------------------------------3-2-----|  
A|---0-0-0-0-0-0-0---3-3-3-3-3-3-3-3-------------------------------------3---|
D|-----------------5-----------------3-3-3-3-3-3-3-3-0-0-0-0-0-0-0-0---------|

[Verse]

G|---------------------------------------------------------------------------|
D|----14~~-------7~~--------14~~--------7~-----------------------------------| 2x
A|----0~~~-------8~~--------0~~~--------8~~----------------------------------|
D|---------------------------------------------------------------------------|

G|---------------------------------------------------------------------------|
D|-----------------------------10-----------10-------------------------------|
A|-----0-0-3-5-0-------\15-8-8----8------8----8--8-10\-----------------------|  2x
D|---------------------------------------------------------------------------|

[Chorus 2]

G|---------------------------------------------------------------------------|
D|-------------------------------------------------------------------3-2-----|  4x
A|---0-0-0-0-0-0-0---3-3-3-3-3-3-3-3-------------------------------------3---|
D|-----------------5-----------------3-3-3-3-3-3-3-3-0-0-0-0-0-0-0-0---------|

[Bridge]

G|---------------------------------------------------------------------------|
D|---------------------------------------------------------------------------|
A|---/12 x8--10-x8--8-x8--5-x8-----------------------------------------------|
D|---------------------------------------------------------------------------|

G|---------------------------------------------------------------------------|
D|--3-2----------------------------------------------------------------------|  4x
A|------3-0-0-0-0-0-0-0---3-3-3-3-3-3-3-3------------------------------------|
D|----------------------5-----------------3-3-3-3-3-3-3-3-0-0-0-0-0-0-0-0----|

[Outro]

G|---------------------------------------------------------------------------|
D|---------------------------------------------------------------------------|
A|--/12--------12-0-3-5-5/12--12-0-3-5-5/12--12-0-3-5-12--12-0-3-5-5/12------|
D|---------------------------------------------------------------------------|            
Submit corrections


        Virtue lessons Hard to play? Try these video lessons and learn fast Virtue lessons
        
↑ Back to top | Tablatures and chords for acoustic guitar and electric guitar, ukulele, drums are parodies/interpretations of the original songs. You may use it for private study, scholarship, research or language learning purposes only