» » »

Bloc Party - Truth Bass

Artists:  A B C D E F G H I J K L M N O P Q R S T U V W X Y Z # 

Truth Bass

(ver. 1) Click to play this song!
Bloc Party
 Rating:
4/5 (4 votes)

 Truth lessons Tabs too difficult? Try these video lessons and learn fast
 
                -------------------------------------------------------------------------------
                            Truth - Bloc Party
-------------------------------------------------------------------------------

Tuning:E standard 4 string

Sweet song off 'Four'
This bass part starts from 00:58
The intro and bridge sections have no bass line
I've included a variation of the verse bass line from a live video

Enjoy!

Verses
G|---------------------------------------------------------------------------|
D|---------------------------------------------------------------------------|
A|-3-3-3-3-3-3-3-3-3-3-3-2-2-2---------7-7-7-7-7-7-7-3-2-2-2-2-2-2-2-2-------|
E|------------------------------3-3-3----------------------------------------|

Or play verses like this
G|---------------------------------------------------------------------------|
D|---------------------------------------------------------------------------|
A|--------------------------------------7-7-7-7-7-7-7------------------------|
E|-8-8-8-8-8-8-8-8-8-8-8-7-7-7--3-3-3-------------------8-7-7-7-7-7-7-7-7----|


Chorus
G|---------------------------------------------------------------------------|
D|---------------------------------------------------------------------------|
A|-7x16------3x32--7x16--5x16--3x32------------------------------------------|
E|------3x16-----------------------------------------------------------------|
            
Submit corrections


        Truth lessons Hard to play? Try these video lessons and learn fast Truth lessons
        
↑ Back to top | Tablatures and chords for acoustic guitar and electric guitar, ukulele, drums are parodies/interpretations of the original songs. You may use it for private study, scholarship, research or language learning purposes only