» » »

Bloc Party - Team A Bass

Artists:  A B C D E F G H I J K L M N O P Q R S T U V W X Y Z # 

Team A Bass

(ver. 1) Click to play this song!
Bloc Party
 Rating:
4/5 (4 votes)

 Team A lessons Tabs too difficult? Try these video lessons and learn fast
 
                intro
F|----------|----------|----------|----------|
C|--x0-0-0--|--x1-0-0--|--x0-0-0--|--x1-0-0--|
G|----------|----------|----------|----------| x2
C|----------|----------|----------|----------|

verse
F|-----------------------|--------------------|
C|--0--12-10-13-10-8-10--|---0-12-10-13-10-8--|
G|-----------------------|--------------------| x12
C|-----------------------|--------------------|

F|----------|----------|----------|----------|
C|--0-------|--0-------|--0-------|--0-------|
G|----------|----------|----------|----------|
C|--0-------|--0-------|--0-------|--0-------|

F|-----------------------|--------------------|
C|--0--12-10-13-10-8-10--|--0--12-10-13-10-8--|
G|-----------------------|--------------------| x16
C|-----------------------|--------------------|

chorus
F|------------|------------|------------|------------|
C|------------|------------|------------|------------|
G|-5-----8-10-|-5-----8-10-|-5-----8-10-|-5-----8-10-| x2
C|-0----------|-0----------|-0----------|-0----------|

bridge
F|--------------------|
C|--8888888888888888--|
G|--------------------| x4
C|--------------------|

F|--------------------|
C|--------------------|
G|--5555555555555555--| x4
C|--------------------|

F|--------------------|
C|--8888888888888888--|
G|--------------------| x4
C|--------------------|

F|--------------------|
C|--------------------|
G|--5555555555555555--| x2
C|--------------------|

F|--------------------|
C|--------------------|
G|--6666666666666666--| x2
C|--------------------|

break

F|---------------|
C|---------------|
G|----------8-10-|
C|---------------|

chorus
F|------------|------------|------------|------------|
C|------------|------------|------------|------------|
G|-5-----8-10-|-5-----8-10-|-5-----8-10-|-5-----8-10-| x2
C|-0----------|-0----------|-0----------|-0----------|

end on
F|--------|
C|--------|
G|-5------|
C|-0------|
            
Submit corrections


        Team A lessons Hard to play? Try these video lessons and learn fast Team A lessons
        
↑ Back to top | Tablatures and chords for acoustic guitar and electric guitar, ukulele, drums are parodies/interpretations of the original songs. You may use it for private study, scholarship, research or language learning purposes only