» » »

Bloc Party - So He Begins To Lie Bass

Artists:  A B C D E F G H I J K L M N O P Q R S T U V W X Y Z # 

So He Begins To Lie Bass

(ver. 1) Click to play this song!
Bloc Party
 Rating:
4/5 (4 votes)

 So He Begins To Lie lessons Tabs too difficult? Try these video lessons and learn fast
 
                ------------------------------------------------------------------
SO HE BEGINS TO LIE - Bloc Party
------------------------------------------------------------------

Album - Four
Bassist - Gordon Moakes




G|---------------|----5-5--------|---------------|---------------|
D|----2-2--------|---------------|----2-2--------|----5-5--------|
A|--------3---3--|--------5---5--|--------3---3--|--------3------|
E|1-1------------|5-5------------|1-1------------|5-5------------|
                                                                   x3
G|---------------|----5-5--------|---------------|---------------|
D|----2-2--------|---------------|----2-2--------|---------------|
A|--------3---3--|--------5---5--|--------3---3--|--5-4---4-3----|
E|1-1------------|5-5------------|1-1------------|5-----5-----3-3|



G|---------------|---------------|---------------|---------------|
D|---------------|---------------|---------------|---------------|
A|---------------|---------------|---------------|---------------|
E|1-1-1-1-1-----1|5-5-5-5-5-----5|0-0-0-0-0-----0|0-0-0-0-0---x-x| x4



G|---------------|----5-5--------|---------------|---------------|
D|----2-2--------|---------------|----2-2--------|----5-5--------|
A|--------3---3--|--------5---5--|--------3---3--|--------3------|
E|1-1------------|5-5------------|1-1------------|5-5------------|
                                                                 
G|---------------|----5-5--------|---------------|---------------|
D|----2-2--------|---------------|----2-2--------|---------------|
A|--------3---3--|--------5---5--|--------3---3--|--5-4---4-3----|
E|1-1------------|5-5------------|1-1------------|5-----5-----3-3|

G|---------------|------12-12--------|---------------|---------------------12|
D|----9-9-10--10-|------------14--12-|----9-9-10--10-|---10-12----12-14-12---|
A|8-8------------|12-12--------------|8-8------------|12-------12------------|
E|---------------|-------------------|---------------|-----------------------|

G|---------------|------12-12--------|---------------|---------------|
D|----9-9-10--10-|------------14--12-|----9-9-10--10-|---------------|
A|8-8------------|12-12--------------|8-8------------|--5-4---4-3----|
E|---------------|-------------------|---------------|5-----5-----3-3|



G|---------------|---------------|---------------|---------------|
D|---------------|---------------|---------------|---------------|
A|---------------|---------------|---------------|---------------|
E|1-1-1-1-1-----1|5-5-5-5-5-----5|0-0-0-0-0-----0|0-0-0-0-0---x-x| x4



G|------------|------------|------------|------------|
D|------------|------------|777777777777|777777777777|
A|888888888888|888888888888|------------|------------|
E|------------|------------|------------|------------|

G|------------|------------|------------------------|------------------------|
D|------------|------------|101010101010101010101010|------------------------|
A|888888888888|888888888888|------------------------|101010101010101010101010|
E|------------|------------|------------------------|------------------------|

G|------------|------------|------------|------------|
D|------------|------------|777777777777|777777777777|
A|888888888888|888888888888|------------|------------|
E|------------|------------|------------|------------|

G|------------|------------|------------------------|------------------------|
D|------------|------------|------------------------|------------------------|
A|888888888888|888888888888|101010101010101010101010|101010101010101010101010|
E|------------|------------|------------------------|------------------------|

G|------------|------------|------------|------------|
D|------------|------------|777777777777|777777777777|
A|888888888888|888888888888|------------|------------|
E|------------|------------|------------|------------|

G|------------|------------|------------------------|------------------------|
D|------------|------------|101010101010101010101010|------------------------|
A|888888888888|888888888888|------------------------|101010101010101010101010|
E|------------|------------|------------------------|------------------------|

G|------------|------------|------------|------------|
D|------------|------------|777777777777|777777777777|
A|888888888888|888888888888|------------|------------|
E|------------|------------|------------|------------|

G|------------|--------------------|----------------|----------------|
D|------------|--------------------|----------------|----------------|
A|888888888888|88888810--10--10--10|----------------|----------------|
E|------------|--------------------|----------------|----------------|



G|---------------|----5-5--------|---------------|---------------|
D|----2-2--------|---------------|----2-2--------|----5-5--------|
A|--------3---3--|--------5---5--|--------3---3--|--------3------|
E|1-1------------|5-5------------|1-1------------|5-5------------|
                                                                 
G|---------------|----5-5--------|---------------|---------------|
D|----2-2--------|---------------|----2-2--------|---------------|
A|--------3---3--|--------5---5--|--------3---3--|--5-4---4-3----|
E|1-1------------|5-5------------|1-1------------|5-----5-----3-3|


not 100% sure but sounds correct.
            
Submit corrections


        So He Begins To Lie lessons Hard to play? Try these video lessons and learn fast So He Begins To Lie lessons
        
↑ Back to top | Tablatures and chords for acoustic guitar and electric guitar, ukulele, drums are parodies/interpretations of the original songs. You may use it for private study, scholarship, research or language learning purposes only