» » »

Bloc Party - Real Talk Bass

Artists:  A B C D E F G H I J K L M N O P Q R S T U V W X Y Z # 

Real Talk Bass

(ver. 1) Click to play this song!
Bloc Party
 Rating:
4.3/5 (20 votes)

 Real Talk lessons Tabs too difficult? Try these video lessons and learn fast
 
                [Intro / Verse]

G|---------------------------------------------------------------------------|
D|---------------------------------------------------------------------------|
A|--4--4---4--4---4--4---4--4--7--7--7--7---7--7--0--0-----------------------|
E|---------------------------------------------------------------------------|

G|---------------------------------------------------------------------------|
D|---------------------------------------------------------------------------|
A|--4--4---4--4--4--4--4--4---(7)-(7)--(7)-(7)--(7)-(7)--(7)-(7)-------------|
E|-----------------------------0---0----0---0----0---0----0---0--------------|

I put the seven in brackets because you don't have to play it but I think it sound nice.


[chorus]

G|-------------------------------------------------------------------------------------------------------|
D|-------------------------------------------------------------------------------------------------------|
A|--2--2---0--0---4--4---4--4---2--2---0--0---9--9---7--7---4--4---4--4---9--9---7--7---4--4---4--4------|
E|-------------------------------------------------------------------------------------------------------|

G|---------------------------------------------------------------------------|
D|------------------------------2--------------------------------------------|
A|--9--9--11--11---4--4---4-3h4------9--9---11--11---------------------------|
E|---------------------------------------------------------------------------|

Repeat that all again


[Bridge]

G|---------------------------------------------------------------------------|
D|---------------------------------------------------------------------------|
A|--12--12---12--12---11--11-------------------------------------------------|  x3
E|-----------------------------4--4------------------------------------------|

G|---------------------------------------------------------------------------|
D|---------------------------------------------------------------------------|
A|--10--10---10--10---10--10---10--10----------------------------------------|
E|---------------------------------------------------------------------------|


[Final Chorus]

G|-----------------------------------------------------------------------------------------------------------|
D|----------------------------------------------------------------------------------------------------8------|
A|--15--15---13--13---10--10---10--10---15--15---13--13---10--10---15--15---17--17---10--10---10-9h10--------|
E|-----------------------------------------------------------------------------------------------------------|

G|---------------------------------------------------------------------------------------------|
D|---------------------------------------------------------------------------------------------|
A|--15--15---17--17---15--15---13--13---10--10---10--10---15--15---13--13---10--10-------------|
E|---------------------------------------------------------------------------------------------|

G|---------------------------------------------------------------------------------|
D|----------------------------------8----------------------------------------------|
A|--15--15---17--17--10--10--10-9h10------15--15---17--17---------------------------|
E|---------------------------------------------------------------------------------|            
Submit corrections


        Real Talk lessons Hard to play? Try these video lessons and learn fast Real Talk lessons
        
↑ Back to top | Tablatures and chords for acoustic guitar and electric guitar, ukulele, drums are parodies/interpretations of the original songs. You may use it for private study, scholarship, research or language learning purposes only