» » »

Bloc Party - Octopus Bass

Artists:  A B C D E F G H I J K L M N O P Q R S T U V W X Y Z # 

Octopus Bass

(ver. 1) Click to play this song!
Bloc Party
 Rating:
4/5 (4 votes)

 Octopus lessons Tabs too difficult? Try these video lessons and learn fast
 
                -------------------------------------------------------------------------------
                             OCTOPUS - Bloc Party
-------------------------------------------------------------------------------

Tuning: Standard

verse
G|------------|-------------|------------|-------------|   \
D|------------|-------------|------------|-------------|   |
A|------------|-------------|------------|-------------|   |
E|--5b6b5-0---|-----0--7-0--|--5b6b5-5\\-|-----5-5--8--|   |
                                                           | x2
G|------------|-------------|------------|--------------|  |
D|------------|-------------|------------|--------------|  |
A|------------|-------------|------------|-------3---5--|  |
E|--5b6b5-0---|-----0--7-0--|--5b6b5-5\\-|-----5---5----|  /

chorus
G|-----------------|-----------------|-----------------|-----------------|
D|-----------------|-----------------|-----------------|-----------------|
A|-6-6-6-6-6-6-6-6-|-----------------|-8-8-8-8-8-8-8-8-|-----------------|
E|-----------------|-5-5-5-5-5-5-5-5-|-----------------|-5-5-5-5-5-5-5-5-|

G|-----------------|-----------------|----------------|-----------------|
D|-----------------|-----------------|----------------|-----------------|
A|-6-6-6-6-6-6-6-6-|-----------------|----------------|-----------------|
E|-----------------|-5-5-5-5-5-5-5-5-|-8-8-8-8-8-8-8-8|-3-3-3-3-3-3-3-3-|

G|-----------------|-----------------|-----------------|-----------------|
D|-----------------|-----------------|-----------------|-----------------|
A|-6-6-6-6-6-6-6-6-|-----------------|-8-8-8-8-8-8-8-8-|-----------------|
E|-----------------|-5-5-5-5-5-5-5-5-|-----------------|-5-5-5-5-5-5-5-5-|

G|-----------------|-----------------|----------------|-----------------|
D|-----------------|-----------------|----------------|-----------------|
A|-6-6-6-6-6-6-6-6-|-----------------|----------------|---------------5-|
E|-----------------|-5-5-5-5-5-5-5-5-|-8-8-8-8-8-8-8-8|-888-8-8-8-8-5---|

verse
G|------------|-------------|------------|-------------|   \
D|------------|-------------|------------|-------------|   |
A|------------|-------------|------------|-------------|   |
E|--5b6b5-0---|-----0--7-0--|--5b6b5-5\\-|-----5-5--8--|   |
                                                           | x2
G|------------|-------------|------------|--------------|  |
D|------------|-------------|------------|--------------|  |
A|------------|-------------|------------|-------3---5--|  |
E|--5b6b5-0---|-----0--7-0--|--5b6b5-5\\-|-----5---5----|  /

at the end of the bridge ("you done lost your mind")
G|--------------|
D|--------------|
A|-------3---5--|
E|----55---5----|

chorus
G|-----------------|-----------------|-----------------|-----------------|
D|-----------------|-----------------|-----------------|-----------------|
A|-6-6-6-6-6-6-6-6-|-----------------|-8-8-8-8-8-8-8-8-|-----------------|
E|-----------------|-5-5-5-5-5-5-5-5-|-----------------|-5-5-5-5-5-5-5-5-|

G|-----------------|-----------------|----------------|-----------------|
D|-----------------|-----------------|----------------|-----------------|
A|-6-6-6-6-6-6-6-6-|-----------------|----------------|-----------------|
E|-----------------|-5-5-5-5-5-5-5-5-|-8-8-8-8-8-8-8-8|-3-3-3-3-3-3-3-3-|

G|-----------------|-----------------|-----------------|-----------------|
D|-----------------|-----------------|-----------------|-----------------|
A|-6-6-6-6-6-6-6-6-|-----------------|-8-8-8-8-8-8-8-8-|-----------------|
E|-----------------|-5-5-5-5-5-5-5-5-|-----------------|-5-5-5-5-5-5-5-5-|

G|-----------------|-----------------|----------------|-----------------|
D|-----------------|-----------------|----------------|-----------------|
A|-6-6-6-6-6-6-6-6-|-----------------|----------------|---------------5-|
E|-----------------|-5-5-5-5-5-5-5-5-|-8-8-8-8-8-8-8-8|-888-8-8-8-8-5---|

guitar solo
G|------------|-------------|------------|-------------|   \
D|------------|-------------|------------|-------------|   |
A|------------|-------------|------------|-------------|   |
E|--5b6b5-0---|-----0--7-0--|--5b6b5-5\\-|-----5-5--8--|   |
                                                           | x2
G|------------|-------------|------------|--------------|  |
D|------------|-------------|------------|--------------|  |
A|------------|-------------|------------|-------3---5--|  |
E|--5b6b5-0---|-----0--7-0--|--5b6b5-5\\-|-----5---5----|  /

end of the pre-chorus
G|------------|
D|------------|
A|------------|
E|------------|

chorus/ending
G|-----------------|-----------------|-----------------|-----------------|
D|-----------------|-----------------|-----------------|-----------------|
A|-6-6-6-6-6-6-6-6-|-----------------|-8-8-8-8-8-8-8-8-|-----------------|
E|-----------------|-5-5-5-5-5-5-5-5-|-----------------|-5-5-5-5-5-5-5-5-|

G|-----------------|-----------------|----------------|-----------------|
D|-----------------|-----------------|----------------|-----------------|
A|-6-6-6-6-6-6-6-6-|-----------------|----------------|---------------5-|
E|-----------------|-5-5-5-5-5-5-5-5-|-8-8-8-8-8-8-8-8|-8-8-8-8-8-5-8---|



| /  slide up
| \  slide down
| b  bend
===============================================================================
            
Submit corrections


        Octopus lessons Hard to play? Try these video lessons and learn fast Octopus lessons
        
↑ Back to top | Tablatures and chords for acoustic guitar and electric guitar, ukulele, drums are parodies/interpretations of the original songs. You may use it for private study, scholarship, research or language learning purposes only