» » »

Bloc Party - Letter To My Son Bass

Artists:  A B C D E F G H I J K L M N O P Q R S T U V W X Y Z # 

Letter To My Son Bass

(ver. 1) Click to play this song!
Bloc Party
 Rating:
4/5 (4 votes)

 Letter To My Son lessons Tabs too difficult? Try these video lessons and learn fast
 
                I picked this song up a while back in winter and never got the time to put up a tab and
the other bass parts. Finally, I got this one created. This is such an awesome song with
amazing bass part. I suggest listening to the song while reading this tab (if you don't 
so already) to get the exact strum patterns down. This tab may have a few minor
which I would like you to comment on if you find any. But, I feel like this is a very 
and accurate tab. Have fun playing this! :D


Intro
G-------------------------------------------------------------------------|
D-------------------------------------------------------------------------|
A-------------------------------------------------------------------------|
E--5\7--------------------------------------------------------------------|

G-------------------------------------------------------------------------|
D-------------------------------------------------------------------------|
A-------------------------------------------------------------------------|
E--5-7--7--7--7--7--7--7--7--7--7--7--7--7--7--7--7-----------------------|


Main bass groove
G-------------------------------------------------------------------------|
D---------------5--5-5----------------------------------------------------|
A-----------------------0-5--5-5-7--7-7--------5--5-5-7--7-7--------------|
E--5-7-7--7-5-7-------------------------7--7-7----------------------------|

G-------------------------------------------------------------------------|
D----------------5--5-5---------------------------------------------------|
A------------------------0-5--5-5-7--7-7----------------------------------|
E--5-7-7--7-5-7---------------------------7--7-7-5--5-5-7--7-7------------|
Repeat twice


Verse 1
I found myself... (0:40)
G-------------------------------------------------------------------------|
D---------------5--5-5----------------------------------------------------|
A--5-------------------0-5--5-5-7--7-7---------5--5-5-7--7-7--------------|
E----7-7--7-5-7------------------------7--7-7-----------------------------|

At the point where we kissed...(0:46)
G-------------------------------------------------------------------------|
D----------------5--5-5---------------------------------------------------|
A------------------------0-5--5-5-7--7-7----------------------------------|
E--5-7-7--7-5-7---------------------------7--7-7-5--5-5-7--7-7------------|
Repeat this four times until 1:26

1:27.............................And you look so right 1:2:9
G-------------------------------------------------------------------------|
D--7-------------------------4--7--7--7-7-7--7-7-4--4--7------------------|
A-----4--4-4-4-4--4-4-7--4-7----------------------------------------------|
E-------------------------------------------------------------------------|


Back to Main bass groove 1:33
G-------------------------------------------------------------------------|
D---------------5--5-5----------------------------------------------------|
A-----------------------0-5--5-5-7--7-7---------5--5-5-7--7-7-------------|
E--5-7-7--7-5-7--------------------------7--7-7---------------------------|

G-------------------------------------------------------------------------|
D----------------5--5-5---------------------------------------------------|
A------------------------0-5--5-5-7--7-7----------------------------------|
E--5-7-7--7-5-7--------------------------7--7-7-5--5-5-7--7-7-------------|
Repeat twice


Verse 2
Oh how id love... (1:56)
G-------------------------------------------------------------------------|
D----------------5--5-5---------------------------------------------------|
A--5---------------------0-5--5-5-7--7-7---------5--5-5-7--7-7------------|
E----7-7--7-5-7--------------------------7--7-7---------------------------|

To be a rock for you...(2:02)
G-------------------------------------------------------------------------|
D---------------5--5-5----------------------------------------------------|
A----------------------0-5--5-5-7--7-7------------------------------------|
E--5-7-7--7-5-7------------------------7--7-7-5--5-5-7--7-7---------------|
 Repeat this four times until 2: 42


2:43.............................And you look so wanton 2:45 in the back of a car
G-------------------------------------------------------------------------|
D--7-------------------------4--7--7--7-7-7--7-7-4--4--7------------------|
A-----4--4-4-4-4--4-4-7--4-7----------------------------------------------|
E-------------------------------------------------------------------------|

2:48
G-------------------------------------------------------------------------|
D-------------------------------------------------------------------------|
A-------------------------------------------------------------------------|
E--7--7--7-7-0--5--5--5-5-5-0-3--3--3-3-3-3--3-3--3-3-3-0-----------------|

2:54.............................like you could start 2:57 A hundred wars
G-------------------------------------------------------------------------|
D--7-------------------------4--7--7--7-7-7--7-7-4--4--7------------------|
A-----4--4-4-4-4--4-4-7--4-7----------------------------------------------|
E-------------------------------------------------------------------------|

3:00
G-------------------------------------------------------------------------|
D-------------------------------------------------------------------------|
A-------------------------------------------------------------------------|
E--7--7--7-7-0--5--5--5-5-5-0-3--3--3-3-3-3--3-3--3-3-3-0-----------------|


3:06
G-------------------------------------------------------------------------|
D-------------------------------4--7--------------------------------------|
A---------------------5-----5h7-----------------7----5-7------------------|
E--7--7--7-7-7-7--7-7-----7----------5-5-5-5--5-----7---------------------|

3:12                                                  (Slide 9 at 3:38)
G-------------------------------------------------------------------------|
D--5--5--5-0-5-7--7-7--7-7-7-0-5-5-5-5-5-0-5-7--7-7-7(7/9-9-9-9-9 on x3)--|
A-------------------------------------------------------------------------|
E-------------------------------------------------------------------------|
Repeat 3 times until 3:40


Main bass Groove Forgive me oscar 3:41
G-------------------------------------------------------------------------|
D---------------5--5-5----------------------------------------------------|
A----------------------0-5--5-5-7--7-7---------5--5-5-7--7-7--------------|
E--5-7-7--7-5-7------------------------7--7-7-----------------------------|

G-------------------------------------------------------------------------|
D---------------5--5-5----------------------------------------------------|
A----------------------0-5--5-5-7--7-7------------------------------------|
E--5-7-7--7-5-7------------------------7--7-7-5--5-5-7--7-7---------------|
Repeat 2 times


Outro 4:04
G-------------------------------------------------------------------------|
D-------------------------------------------------------------------------|
A--5------------------5----5-7-5------------------5----5-7-5--------------|
E-----7--7-7-7-7--7-7----7--------7--7-7-7-7--7-7----7--------------------|x2

End on 4:15
G---------------------------------|
D---------------------------------|
A---------------------------------|
E----7----------------------------|
            
Submit corrections


        Letter To My Son lessons Hard to play? Try these video lessons and learn fast Letter To My Son lessons
        
↑ Back to top | Tablatures and chords for acoustic guitar and electric guitar, ukulele, drums are parodies/interpretations of the original songs. You may use it for private study, scholarship, research or language learning purposes only