» » »

Bloc Party - Exes Tabs

Artists:  A B C D E F G H I J K L M N O P Q R S T U V W X Y Z # 

Exes Tabs

(ver. 1) Click to play this song!
Bloc Party
 Rating:
3.7/5 (20 votes)

 Exes  lessons Tabs too difficult? Try these video lessons and learn fast
 
                Verse:
e|---------------------------------------------------------------------------|
B|------2---------2--------5----5---5---2---5--------------------------------|
G|------2---------2--------6----7---6---2---7--------------------------------|
D|---4--4------0--0-----7--7----7---7---4---7--------------------------------|
A|---------------------------------------------------------------------------|
E|---------------------------------------------------------------------------|

OR

e|---------------------------------------------------------------------------|
B|------2---------2--------5----5---5---5---5--------------------------------|
G|------2---------2--------6----7---6---6---7--------------------------------|
D|---4--4------0--0-----7--7----7---7---7---7--------------------------------|
A|---------------------------------------------------------------------------|
E|---------------------------------------------------------------------------|

Pre-Chorus ("There was a time, for about two weeks..."):
e|---------------------------------------------------------------------------|
B|---2--2----5--5----5--5----2--2----2--2--2-2-2-2---------------------------|
G|---2--2----6--6----7--7----2--2----4--4--4-4-2-4---------------------------|
D|---4--4----7--7----7--7----4--4----4--4--4-4-4-4---------------------------|
A|---------------------------------------------------------------------------|
E|---------------------------------------------------------------------------|

OR

e|---------------------------------------------------------------------------|
B|---2--2----5--5----5--5----5--5----2--2--2-2-2-2---------------------------|
G|---2--2----6--6----7--7----6--6----4--4--4-4-2-4---------------------------|
D|---4--4----7--7----7--7----7--7----4--4--4-4-4-4---------------------------|
A|---------------------------------------------------------------------------|
E|---------------------------------------------------------------------------|

Chorus ("To all the exes.."):
e|---------------------------|
B|---5h7--7----7-7-5--5------|    
G|---6h7--7----7-7-6--6------|  
D|---------------------------|
A|---------------------------|
E|---------------------------|

e|-------------------------------------------|
B|---2--2----5--5----5h7--7----7-7-5--5------|    
G|---2--2----6--6----6h7--7----7-7-6--6------|  (3x)
D|---4--4----7--7----------------------------|
A|-------------------------------------------|
E|-------------------------------------------|

e|-------------------------------------------|
B|---2--2----5--5----2----0-0-0-0h2--2h3-----|
G|---2--2----6--6----2----2-2-2-2-2--2-2-----|
D|---4--4----7--7----0----0-0-0-0-0--0-0-----|
A|-------------------------------------------|
E|-------------------------------------------|

Bridge ("But I must try..."):
e|--------------------------------------------------------|
B|--------------------------------------------------------|
G|--------------------------------------------------------|
D|--------------------------------------------------------|
A|--5--5--5--5--4--4--4--4--------------2-----2--4--------|
E|--------------------------2--0--2--5-----5--------------|

End (I think. From what I can hear anyway):
e|---------------------------|
B|---5--5----5--5----2--2----|
G|---7--7----6--6----2--2----| Repeat how many times
D|---7--7----7--7----4--4----|
A|---------------------------|
E|---------------------------|

"But I must try"
e|-----|
B|--2--|
G|--2--|
D|--0--|
A|-----|
E|-----|            
Submit corrections


        Exes  lessons Hard to play? Try these video lessons and learn fast Exes  lessons
        
↑ Back to top | Tablatures and chords for acoustic guitar and electric guitar, ukulele, drums are parodies/interpretations of the original songs. You may use it for private study, scholarship, research or language learning purposes only