» » »

Bloc Party - Children Of The Future Tabs

Artists:  A B C D E F G H I J K L M N O P Q R S T U V W X Y Z # 

Children Of The Future Tabs

(ver. 1) Click to play this song!
Bloc Party
 Rating:
2.7/5 (24 votes)

 Children Of The Future  lessons Tabs too difficult? Try these video lessons and learn fast
 
                Tuning: D A D G B E

e|---------------------------------------------------------------------------|
B|---------------------------------------------------------------------------|
G|--14--------6-6-6--7-7-7---------14-------12--11--9--11-11--11-------------|
D|--x---------x-x-x--x-x-x---------x----(0)-x---x---x--x--x---x--(0)---------|
A|--12--------4-4-4--5-5-5---------12---(0)-10--9---7--9--9---9--(0)---------|
D|--0---------0-0-0--0-0-0---------0----(0)-0---0---0--0--0---0--(0)---------|

    x7                             x7

e|---------------------------------------------------------------------------|
B|---------------------------------------------------------------------------|
G|--14--------6-6-6--7-7-7--------11--------7--------------------------------|
D|--x---------x-x-x--x-x-x-(0)----11--(0)---7--------------------------------|
A|--12--------4-4-4--5-5-5-(0)----9---(0)---5--------------------------------|
D|--0---------0-0-0--0-0-0-(0)----9---(0)---5--------------------------------|

    x7                            x6        x8

Repeat above until chorus.

"Yes, the children are the future.."

e|---------------------------------------------------------------------------|
B|--2-----3-----2------7-----2-----3-----2------5----------------------------|
G|--2-----4-----2------7-----2-----4-----2------6----------------------------|
D|--4-----5-----4------9-----4-----5-----4------7----------------------------|
A|--4-----5-----4------9-----4-----5-----4------7----------------------------|
D|---------------------------------------------------------------------------|

Those are the chords, strum pattern is up to you.
I end up strumming each chord 15 times and letting the 8th strum ring a bit.

After 2nd chorus..

e|----------------------------------10---------------------------------------|
B|--7~~~----5---10~~~------12~~~----10---10~~~-------------------------------|
G|--7~~~----6---11~~~------12~~~----11---11~~~-------------------------------|
D|--9~~~----7---12~~~------14~~~----12---12~~~-------------------------------|
A|--9~~~----7---12~~~------14~~~---------12~~~-------------------------------|
D|---------------------------------------------------------------------------|

"Be all that you can be.."

e|-------------------3~~~----------------------------------------------------|
B|---7~~~----5~~~----3~~~----------------------------------------------------|
G|---7~~~----6~~~----4~~~----------------------------------------------------|
D|---9~~~----7~~~----5~~~-----5----------------------------------------------|
A|---9~~~----7~~~----5~~~-----5----------------------------------------------|
D|----------------------------5----------------------------------------------|

                             P.M. 

Palm mute the final chord before going back into the main riff and that's it!            
Submit corrections


        Children Of The Future  lessons Hard to play? Try these video lessons and learn fast Children Of The Future  lessons
        
↑ Back to top | Tablatures and chords for acoustic guitar and electric guitar, ukulele, drums are parodies/interpretations of the original songs. You may use it for private study, scholarship, research or language learning purposes only