Home » B » Blitz »

Blitz - 45 Revolutions Bass

Artists:  A B C D E F G H I J K L M N O P Q R S T U V W X Y Z # 

45 Revolutions Bass

(ver. 1) Click to play this song!
Blitz
Intro                                                             x2
G-------------------------------|-----------------------------------|
D-------------------------------|-----------------------------------|
A--feedback---------------------|----------------5-5--7-7-7-7-7-7-7-|
E-------------------------------|-7-7-7-7-7-7-7---------------------|

Verse                             x3
G-----------------------------------|-------------------------------|
D-----------------------------------|-------------------------------|
A----------------5-5--7-7-7-7-7-7-7-|-------------------------------|
E-7-7-7-7-7-7-7---------------------|-7-7-7-7-7-7-7/5-7-7-7-7-7-7-7-|

Chorus
G------------------------------|
D------------------------------|
A----------------7-7--5-5-5-5--|
E-5-5-5-5-5-5-5----------------|

Outro                        x2                                  x2
G------------------------------|-----------------------------------|
D------------------------------|-----------------------------------|
A----------------7-7--5-5-5-5--|----------------5-5--7-7-7-7-7-7-7-|
E-5-5-5-5-5-5-5----------------|-7-7-7-7-7-7-7---------------------|

just listen for the order
            
Submit corrections

↑ Back to top | Tablatures and chords for acoustic guitar and electric guitar, ukulele, drums are parodies/interpretations of the original songs. You may use it for private study, scholarship, research or language learning purposes only