Home » B » Blitz »

Blitz - 45 Revolutions Tabs

Artists:  A B C D E F G H I J K L M N O P Q R S T U V W X Y Z # 

45 Revolutions Tabs

(ver. 1) Click to play this song!
Blitz
-----------------------------------------------------------------
-----------------------------------------------------------------

Tuning:Standard

Intro:
e|---------------------------------------------------------------|
B|---------------------------------------------------------------|
G|---------------------------------------------------------------|
D|-9-------------------------------------------------------------|
A|-9-(feeeeeeeedbaaaaaaack)--------------------------------------|
E|-7-------------------------------------------------------------|

Verse:
e|---------------------------------------------------------------|
B|---------------------------------------------------------------|
G|---------77-9999999--------------------------------------------|
D|-9999999-77-9999999-(play this 3 three times--9999999-7-9999999|
A|-9999999-55-7777777--and on the fourth time --9999999-7-9999999|
E|-7777777-------------play the following)------7777777\5/7777777|

Chorus:
e|---------------------------------------------------------------|
B|---------------------------------------------------------------|
G|---------99-7777-----------------------------------------------|
D|-7777777-99-7777-----------------------------------------------|
A|-7777777-77-5555-----------------------------------------------|
E|-5555555-------------------------------------------------------|

The end is just the verse and chorus being played back and forth less
times than usuall.

| / slide up
| \ slide down
| h hammer-on
| p pull-off
| ~ vibrato
| + harmonic
| x Mute note
            
Submit corrections

↑ Back to top | Tablatures and chords for acoustic guitar and electric guitar, ukulele, drums are parodies/interpretations of the original songs. You may use it for private study, scholarship, research or language learning purposes only