» » »

Blink-182 - The Rock Show Live Tabs

Artists:  A B C D E F G H I J K L M N O P Q R S T U V W X Y Z # 

The Rock Show Live Tabs

(ver. 2) Click to play this song!
Blink-182
 Rating:
4.3/5 (29 votes)

 The Rock Show Live lessons Tabs too difficult? Try these video lessons and learn fast
 
                [Intro/Riff]
e|-------------------------------------------------------------|
B|-------------------------------------------------------------|
G|-------------------------------------------------------------|
D|---------2---0-----------------------2---0-------------------| x2
A|-0-0-0-0-------4-5-4-0---0-0-0-0----------4-7-4-0------------|
E|-------------------------------------------------------------|

e|------------------------------|
B|------------------------------|
G|------------------------------|
D|--7777777777777777------------|
A|--7777777777777777------------|
E|--5555555555555555------------|
(PM) -----------------|


[Verse]
e|--------------------------------------------------------|
B|--------------------------------------------------------|
G|--------------------7-77777777-9-99999999---------------|
D|--7-77777777777777--7-77777777-9-99999999---------------|
A|--7-777777777777777-5-55555555-7-77777777---------------| x2
E|--5-555555555555555-------------------------------------|
(PM)  ---------------   --------    --------|

Riff
e|-------------------------------------------------------------|
B|-------------------------------------------------------------|
G|-------------------------------------------------------------|
D|---------2---0-----------------------2---0-------------------| x2
A|-0-0-0-0-------4-5-4-0-------0-0-0-0-------4-7-4-0-----------|
E|-------------------------------------------------------------|

[Verse 2]
has no guitar, however the last note of the riff rings out through the verse


[Chorus]
pickslide just before first power chord

e|------------------|
B|------------------|
G|------------7-----|
D|--7-7-7--4--7-----|
A|--7-7-7--4--5-----| x3
E|--5-5-5--2--------|

e|------------------------------------------------|
B|------------------------------------------------|
G|-9---7---9---7---9---7-6------------------------|
D|-9---7---9---7---9---7-6------------------------|
A|-7---5---7---5---7---5-4------------------------|
E|------------------------------------------------|


Riff

e|-------------------------------------------------------------|
B|-------------------------------------------------------------|
G|-------------------------------------------------------------|
D|---------2---0-----------------------2---0-------------------| x2
A|-0-0-0-0-------4-5-4-0-------0-0-0-0-------4-7-4-0-----------|
E|-------------------------------------------------------------|


[Verse 3]
also has no guitar, however the last note of the riff rings out through the verse

[Chorus]
pickslide just before first power chord

e|------------------|
B|------------------|
G|------------7-----|
D|--7-7-7--4--7-----|
A|--7-7-7--4--5-----| x3
E|--5-5-5--2--------|


e|------------------------------------------------|
B|------------------------------------------------|
G|-9---7---9---7---9---7-6------------------------|
D|-9---7---9---7---9---7-6------------------------|
A|-7---5---7---5---7---5-4------------------------| x1
E|------------------------------------------------|

[Bridge]
e|------------------------------------------------|
B|--2-----2--3--2---2--3--2---2--3----------------|
G|---2-----2--2--2---2--2--2---2----4-4-4-4-------|
D|------------------------------------------------| 
A|------------------------------------------------| x2
E|------------------------------------------------|

e|--------------------------------------------------|
B|--2-----2--3--2---2--3--2---2--3------------------|
G|---2-----2--2--2---2--2--2---2----4-4-4-4-4-4-4-4-|
D|--------------------------------------------------| 
A|--------------------------------------------------| x2
E|--------------------------------------------------|

e|------------------------------------------------|
B|---0-2--2-----0-2--2-----0-2--2-----------------|
G|--2----2-2---2----2-2---2----2-2--4-4-4-4-------|
D|------------------------------------------------| 
A|------------------------------------------------| x2
E|------------------------------------------------|

Tom strums this softly, while Mark sings “Black and white pictures on my wall…” 
e|----------------------|
B|----------------------|
G|----------------------|
D|---7-7-7-7-7-7-7-7----| 
A|---7-7-7-7-7-7-7-7----| x8
E|---5-5-5-5-5-5-5-5----|


e|--------|
B|--------|
G|--------|
D|---9----| 
A|---9----| x1
E|---7----|

[Chorus]
e|------------------|
B|------------------|
G|------------7-----|
D|--7-7-7--4--7-----|
A|--7-7-7--4--5-----| x3
E|--5-5-5--2--------|


e|------------------------------------------------|
B|------------------------------------------------|
G|-9---7---9---7---9---7-6------------------------|
D|-9---7---9---7---9---7-6------------------------|
A|-7---5---7---5---7---5-4------------------------|
E|------------------------------------------------|

[Outro Riff]
let the final note ring out
e|-------------------------------------------------------------|
B|-------------------------------------------------------------|
G|-------------------------------------------------------------|
D|---------2---0-----------------------2---0-------------------| x4
A|-0-0-0-0-------4-5-4-0-------0-0-0-0-------4-7-4-0-----------|
E|-------------------------------------------------------------|            
Submit corrections


        The Rock Show Live lessons Hard to play? Try these video lessons and learn fast The Rock Show Live lessons
        
↑ Back to top | Tablatures and chords for acoustic guitar and electric guitar, ukulele, drums are parodies/interpretations of the original songs. You may use it for private study, scholarship, research or language learning purposes only