» » »

Blink-182 - Going Away To College Tabs

Artists:  A B C D E F G H I J K L M N O P Q R S T U V W X Y Z # 

Going Away To College Tabs

(ver. 1) Click to play this song!
Blink-182
 Rating:
4/5 (4 votes)


 Going Away To College lessons Tabs too difficult? Try these video lessons and learn fast
 
                PROPS GO TO: Brian

Intro:
|-0000-0000-0000-0000-0000-0000-0000-0-|
|-2222-0000-2222-0000-2222-0000-2222-2-|
|-2222-2222-2222-2222-2222-2222-2222-0-|
|-2222-2222-2222-2222-0000-0000-0000-0-|  x2
|--------------------------------------|
|(--------------Palm Mute-------------)|
 
Riff 1
|
|
|-----8---8---8-----8-|
|---9---9---9-----9---|
|-------------------7-| x2
|-7-------------7-----|

Riff 2
|---------------------------------------------|
|---------------------------------------------|
|------9999-11-11-11-11------9999-11-11-11-11-|
|-9999-9999-11-11-11-11-9999-9999-11-11-11-11-|
|-9999-7777--9--9--9--9-9999-7777--9--9--9--9-|
|-7777------------------7777------------------|

Chorus
|----------------|    |----------------|
|----------------|    |----------------|
|-8888-9999------|    |-8888-9999----4-|
|-8888-9999-4444-|    |-8888-9999-44-4-|
|-6666-7777-4444-| x3 |-6666-7777-44-2-|
|-----------2222-|    |-----------22---|

Verse
|-------------------------|
|-------------------11----|
|-11-11-11-11-11-11----11-|
|-------------------------| x2
|-------------------------|
|-------------------------|

Order:
Intro
Riff 1
Riff 2
Riff 1
Riff 2
Chorus
Riff 1
Verse
Riff 2
Chorus
Intro
Chorus

Lyrics:
Please take me by the hand, it's so cold out tonight
I'll put blankets on the bed, I won't turn out the light
Don't forget to think about me and I won't forget you
"I'll write you once a week," she said

Why does it feel the same to fall in love or break it off 
and if your love is just a game then i must have missed the kickoff
don't depend on me to ever follow through on anything 
but i'd go through hell for you

Chorus:
I haven't been this scared, in a long time
and i'm so unprepared, so here's your valentine
boquet of clumsy words, a simple melody
this world's an ugly place, but your so bueatiful to me

I'll think about the times she kissed me after class
she put up with my friends i acted like an ass
i ditched my lecture to watch the girls play soccer
is my picture still hanging in her locker

Chorus x2
            
Submit corrections



        Going Away To College lessons Hard to play? Try these video lessons and learn fast Going Away To College lessons
        
↑ Back to top | Tablatures and chords for acoustic guitar and electric guitar, ukulele, drums are parodies/interpretations of the original songs. You may use it for private study, scholarship, research or language learning purposes only