» » »

*Blink 182* - The Fallen Tabs

Artists:  A B C D E F G H I J K L M N O P Q R S T U V W X Y Z # 

The Fallen Tabs

(ver. 1) Click to play this song!
*Blink 182*
 Rating:
4/5 (4 votes)


 The Fallen lessons Tabs too difficult? Try these video lessons and learn fast
 
                (Interlude)
This is the exact way the recorded it, it sounds perfect, please rate this tab.
~ = ring out
/ = slide
h = hammer on
p = pull off

First Part
---17~~~~~~~~~15/19
-------------------
-------------------
-------------------
-------------------
-------------------

Second Part
--------------------------------------------------
-----------------------------------17/ until note dies
--11-h-12-p-11-------------------------------------
--------------------------------------------------
-------------------------------------------------
----------------------------------------------------

Third Part
------------------------------------------------------------
---12--10--8/10------------7/8------------------------------
---12--11--9/11------------7/9------------------------------
-----------------------------------------------------------
-------------------------------------------------------------
-------------------------------------------------------------
            
Submit corrections



        The Fallen lessons Hard to play? Try these video lessons and learn fast The Fallen lessons
        
↑ Back to top | Tablatures and chords for acoustic guitar and electric guitar, ukulele, drums are parodies/interpretations of the original songs. You may use it for private study, scholarship, research or language learning purposes only