» » »

*Blink 182* - Parking Lot Tabs

Artists:  A B C D E F G H I J K L M N O P Q R S T U V W X Y Z # 

Parking Lot Tabs

(ver. 3) Click to play this song!
*Blink 182*
 Rating:
4.3/5 (26 votes)


 Parking Lot  lessons Tabs too difficult? Try these video lessons and learn fast
 
                [Intro]
   PM-----|   PM-----|
e|----------------------|------------------------------------------------------|
B|----------------------|------------------------------------------------------|
G|-7-7-7-7~-------------|------------------------------------------------------|
D|-7-7-7-7~---5-5-5-5~--|-7-7-7-7-7-7-7-7---4-4-4-4-4-4-4-4--------------------|
A|-5-5-5-5~---5-5-5-5~--|-7-7-7-7-7-7-7-7---4-4-4-4-4-4-4-4--------------------|
E|------------3-3-3-3~--|-5-5-5-5-5-5-5-5---2-2-2-2-2-2-2-2--------------------|

e|----------------|-----------------------------------------------------|
B|-5-------5------|-5-------5--3--3--3--3-------------------------------|
G|---5---5---5---5|---5---5----5b-5b-5b-5b------------------------------|
D|-----5-------5--|-----5-----------------------------------------------|
A|----------------|-----------------------------------------------------|
E|----------------|-----------------------------------------------------|

[Verse]
Follow V1 and V2 for strum patterns (xx^ or all PM)
e|--------------------------------|-------------------------------------|
B|--------------------------------|-------------------------------------|
G|-7-7-7-7-7-7-7-7-7-7-7-7-7-7-7-7|-------------------------------------|
D|-7-7-7-7-7-7-7-7-7-7-7-7-7-7-7-7|-5-5-5-5-5-5-5-5-5-7-7-7-7-7-7-7-7---|
A|-5-5-5-5-5-5-5-5-5-5-5-5-5-5-5-5|-5-5-5-5-5-5-5-5-5-7-7-7-7-7-7-7-7---|
E|--------------------------------|-3-3-3-3-3-3-3-3-3-5-5-5-5-5-5-5-5---|
End of V2 has this played fast
e|----------------------------------|
B|----------------------------------|
G|-7-7-7-7--------------------------|
D|---------7-7-7-7-5-5-5-5-4-4-4-4--|
A|----------------------------------|
E|----------------------------------|

[Chorus]
This
e|-----------------|------------------------------------|
B|-----------------|------------------------------------|
G|-7-7-7-7-7-7-7-7-|------------------------------------|
D|-7-7-7-7-7-7-7-7-|7-7-7-7-7-7-7-7-5-5-5-5-5-5-5-5-----|
A|-5-5-5-5-5-5-5-5-|7-7-7-7-7-7-7-7-5-5-5-5-5-5-5-5-----|
E|-----------------|5-5-5-5-5-5-5-5-3-3-3-3-3-3-3-3-----|
Then this 
e|--------------------------------|-------|
B|--------------------------------|-------|
G|--------------------------------|---7~--|
D|-4-4-4-4-4-4-4-4-5-5-5-5-5-5-5-5|-7~7~--|
A|-4-4-4-4-4-4-4-4-5-5-5-5-5-5-5-5|-7~5~--|
E|-2-2-2-2-2-2-2-2-3-3-3-3-3-3-3-3|-5~----|
Or this as lead at end of chorus

e|------------------------|-------------------------|
B|------------------------|-------------------------|
G|-11-11-11-11-11-11-11-11|-12-12-12-12-12-12-12-12-|
D|------------------------|-------------------------|
A|-9--9--9--9--9--9--9--9-|-10-10-10-10-10-10-10-10-|
E|------------------------|-------------------------|

[Into Bridge]
[Bridge]
e|-------------|
B|-------------|
G|-7---7-------|
D|-7-7-7-5-----|
A|-5-7-5-5-----|
E|---5---3-----|

e|----------------------------------|---------------------------------|
B|----------------------------------|---------------------------------|
G|-7-7-7-7-7-7-7-7------------------|---------------------------------|
D|-7-7-7-7-7-7-7-7-7-7-7-7-7-7-7-7-7|-9-9-9-9-9-9-9-9-4-4-4-4-4-4-4-4-|
A|-5-5-5-5-5-5-5-5-7-7-7-7-7-7-7-7-7|-9-9-9-9-9-9-9-9-4-4-4-4-4-4-4-4-|
E|-----------------5-5-5-5-5-5-5-5-5|-7-7-7-7-7-7-7-7-2-2-2-2-2-2-2-2-|

Do 2x
e|------------------|
B|-7---8---10---8---|
G|---7---7----7---7-|
D|------------------|
A|------------------|
E|------------------|

Then this 
e|--9--10--9---10---|
B|------------------|
G|---7---7---7---7--|
D|------------------|
A|------------------|
E|------------------|

Then this 2x after
e|------------------|
B|-7---8---10---8---|
G|---7---7----7---7-|
D|------------------|
A|------------------|
E|------------------|

Which leads into this at the very end
e|--------------------|
B|--------------------|
G|-11-11-11-11-9-9-7~-|
D|--------------------|
A|-9--9--9--9--7-7-5~-|
E|--------------------|
Bass solo after this
            
Submit corrections



        Parking Lot  lessons Hard to play? Try these video lessons and learn fast Parking Lot  lessons
        
↑ Back to top | Tablatures and chords for acoustic guitar and electric guitar, ukulele, drums are parodies/interpretations of the original songs. You may use it for private study, scholarship, research or language learning purposes only