» » »

*Blink 182* - Dogs Eating Dogs Tabs

Artists:  A B C D E F G H I J K L M N O P Q R S T U V W X Y Z # 

Dogs Eating Dogs Tabs

(ver. 1) Click to play this song!
*Blink 182*
 Rating:
4/5 (4 votes)
                -------------------------------------------------------------------------------
-------------------------------------------------------------------------------

Tuning: EADGBe

Intro

. = Palmmute

~ = Let Ring

e|--------------------------------------------------------------------------|
B|--------------------------------------------------------------------------|
G|-5-4-5-7-5-4-55555555-----------5-4-5-7-5-4-55555555----------------------| x2
D|-x-x-x-x-x-x-55555555-55555555--x-x-x-x-x-x-55555555-22222222-------------|
A|-3-2-2-5-3-2-33333333-55555555--3-2-2-5-3-2-33333333-22222222-------------|
E|----------------------33333333-----------------------00000000-------------|

Verse 1

e|---------------------------------------------------------------------------|
B|---------------------------------------------------------------------------|
G|-2~--55555555----------2222222222222222-55555555---------------------------|
D|-2~--55555555-55555555-2222222222222222-55555555-22222222------------------|
A|-0~--33333333-55555555-0000000000000000-33333333-22222222------------------|
E|--------------33333333---------------------------00000000------------------|

e|---------------------------------------------------------------------------|
B|---------------------------------------------------------------------------|
G|-2222222222222222-55555555----------2222222222222222-55555555--------------|
D|-2222222222222222-55555555-55555555-2222222222222222-55555555-22222222-----|
A|-0000000000000000-33333333-55555555-0000000000000000-33333333-22222222-----|
E|---------------------------33333333---------------------------00000000-----|

Pre-Chorus

e|------------------------------------|
B|------------------------------------|
G|------------------------------------| x2
D|------------------55555555----------| 
A|-3333333333333333-33333333-55555555-|
E|-1111111111111111----------33333333-|
   ................ ........ ........ 

Chorus

e|-------------------------------------|
B|-------------------------------------|
G|-5~----------------------------------| x2
D|-5~-------3~-------7~---5~---3~---3~-|
A|-3~-------3~-------7~---5~---3~---3~-|
E|----------1~-------5~---3~---1~---1~-|

Intro

e|--------------------------------------------------------------------------|
B|--------------------------------------------------------------------------|
G|-5-4-5-7-5-4-55555555-----------5-4-5-7-5-4-55555555----------------------| x2
D|-x-x-x-x-x-x-55555555-55555555--x-x-x-x-x-x-55555555-22222222-------------|
A|-3-2-2-5-3-2-33333333-55555555--3-2-2-5-3-2-33333333-22222222-------------|
E|----------------------33333333-----------------------00000000-------------|

Verse 2

e|---------------------------------------------------------------------------|
B|---------------------------------------------------------------------------|
G|-2222222222222222-55555555----------2222222222222222-55555555--------------|
D|-2222222222222222-55555555-55555555-2222222222222222-55555555-22222222-----|
A|-0000000000000000-33333333-55555555-0000000000000000-33333333-22222222-----|
E|---------------------------33333333---------------------------00000000-----|

Pre-Chorus

e|------------------------------------|
B|------------------------------------|
G|------------------------------------| x2
D|------------------55555555----------| 
A|-3333333333333333-33333333-55555555-|
E|-1111111111111111----------33333333-|
   ................ ........ ........ 

Chorus

e|-------------------------------------|
B|-------------------------------------|
G|-5~----------------------------------| x2
D|-5~-------3~-------7~---5~---3~---3~-|
A|-3~-------3~-------7~---5~---3~---3~-|
E|----------1~-------5~---3~---1~---1~-|


Bridge

e|----|
B|----|
G|----|
D|----|
A|-0~-|
E|----|

e|--------------------|
B|-----------------5~-|
G|-----5-7-4-7---5~---| x2
D|---7----------------|
A|-0-----------3~-----|
E|--------------------|

e|-------------------------|
B|-----6~----------------3-|
G|---5~-----------5~-------| x2
D|-3~-----------5~---5-----|
A|------------3~-------3---|
E|-------------------------|

e|--------|
B|-----6~-|
G|---5~---| 
D|-3~-----|
A|--------|
E|--------|

Pre-Chorus

e|------------------------------------|
B|------------------------------------|
G|------------------------------------| 
D|-3----------------55555555----------| 
A|-3333333333333333-33333333-55555555-|
E|-1111111111111111----------33333333-|
    ............... ........ ........ 

e|------------------------------------|
B|------------------------------------|
G|------------------------------------| 
D|------------------55555555----------| 
A|-3333333333333333-33333333-55555555-|
E|-1111111111111111----------33333333-|
   ................ ........ ........ 

Chorus

e|-------------------------------------|
B|-------------------------------------|
G|-5~----------------------------------| x2
D|-5~-------3~-------7~---5~---3~---3~-|
A|-3~-------3~-------7~---5~---3~---3~-|
E|----------1~-------5~---3~---1~---1~-|


Outro

e|---------------------------------------------------------------------|
B|---------------------------------------------------------------------|
G|--5-4-5-7-5-4-55555555-----------5-4-5-7-5-4-55555555----------------| 
D|--x-x-x-x-x-x-55555555-55555555--x-x-x-x-x-x-55555555-2~-------------|
A|--3-2-2-5-3-2-33333333-55555555--3-2-2-5-3-2-33333333-2~-------------|
E|-----------------------33333333-----------------------0~-------------|


Lyrics:

I've got a feeling, I've got a feeling
These broken nights and bitter ends 
We would always starve and devour 
Our closest friends my beautiful friends 
Paranoia my paranoia 
Can't let it go, it never lets me go 
What am I feeling, why am I feeling 
Forecast into the freezing cold

Dogs eating dogs, dogs eating dogs, dogs eating dogs 
Dogs eating dogs, dogs eating dogs, dogs eating dogs 

I'm the last and the first in a very sad set of eyes 
To the bone, to the knees, to the factory line 
I am numb to the shot, I have a crippling fear of heights 
'Cause the fall sounds a lot like a symphony of cries

Your only hope is burning down the chapel 
All getting washed out with the tide  
We need to find some middle ground 
It's always sex or suicide

Dogs eating dogs, dogs eating dogs, dogs eating dogs 
Dogs eating dogs, dogs eating dogs, dogs eating dogs 

I'm the last and the first in a very sad set of eyes 
To the bone, to the knees, to the factory line 
I am numb to the shot, I have a crippling fear of heights 
'Cause the fall sounds a lot like a symphony of cries

Dogs eating dogs, dogs eating dogs, dogs eating dogs 
Dogs eating dogs, dogs eating dogs, dogs eating dogs 

I'm the last and the first in a very sad set of eyes 
To the bone, to the knees, to the factory line 
I am numb to the shot, I have a crippling fear of heights 
'Cause the fall sounds a lot like a symphony of cries
            
Submit corrections

↑ Back to top | Tablatures and chords for acoustic guitar and electric guitar, ukulele, drums are parodies/interpretations of the original songs. You may use it for private study, scholarship, research or language learning purposes only