Home » B » Blink-182 »

Blink-182 - Dammit Tabs

Artists:  A B C D E F G H I J K L M N O P Q R S T U V W X Y Z # 

Dammit Tabs

(ver. 3) Click to play this song!
Blink-182
(Intro)
e|------------------------------------------------------|
B|------------------------------------------------------|
G|------------------------------------------------------|
D|------------2----------2--------0-0--2---3-3--2-2--0--|
A|--3-3--5-5--------5-5------0-0------------------------|
E|--------------3-3-------------------------------------|
 
e|------------------------------------------------------|
B|------------------------------------------------------|
G|------------------------------------------------------|
D|------------2----------2--------0-0--2---3-3--2-2--0--|
A|--3-3--5-5--------5-5------0-0------------------------|
E|--------------3-3-------------------------------------|
 
e|------------------------------------------------------|
B|------------------------------------------------------|
G|------------------------------------------------------|
D|------------2----------2--------0-0--2---3-3--2-2--0--|
A|--3-3--5-5--------5-5------0-0------------------------|
E|--------------3-3-------------------------------------|
 
e|------------------------------------------------------|
B|------------------------------------------------------|
G|------------------------------------------------------|
D|------------2----------2--------0-0--2---3-3--2-2--0--|
A|--3-3--5-5--------5-5------0-0------------------------|
E|--------------3-3-------------------------------------|
 
(Verse)
e|-------------------------------------------------|
B|-------------------------------------------------|
G|--5--X-X-X-X-X-----------------------------------|
D|--5--X-X-X-X-X----5--X-X-X-X-X---7--X-X-X-X-X----|
A|--3--X-X-X-X-X----5--X-X-X-X-X---7--X-X-X-X-X----|
E|------------------3--X-X-X-X-X---5--X-X-X-X-X----|
    IT’S ALRIGHT TO TELL ME        WHATCHU THINK
 
e|---------------------|
B|---------------------|
G|---------------------|
D|--3--X-X-X-X-X-------|
A|--3--X-X-X-X-X-------|
E|--1--X-X-X-X-X-------|
    ABOUT ME
 
e|-------------------------------------------------|
B|-------------------------------------------------|
G|--5--X-X-X-X-X-----------------------------------|
D|--5--X-X-X-X-X----5--X-X-X-X-X---7--X-X-X-X-X----|
A|--3--X-X-X-X-X----5--X-X-X-X-X---7--X-X-X-X-X----|
E|------------------3--X-X-X-X-X---5--X-X-X-X-X----|
    I WON’T TRY     TO ARGUE       OR HOLD IT
 
e|---------------------|
B|---------------------|
G|---------------------|
D|--3--X-X-X-X-X-------|
A|--3--X-X-X-X-X-------|
E|--1--X-X-X-X-X-------|
    AGAINST YOU
 
e|---------------------------------------------|
B|---------------------------------------------|
G|--5-5-5-5-5----------------------------------|
D|--5-5-5-5-5----5-5-5-5-5------7-7-7-7-7------|
A|--3-3-3-3-3----5-5-5-5-5------7-7-7-7-7------|
E|---------------3-3-3-3-3------5-5-5-5-5------|
    I KNOW THAT  YOU’RE LEAVING YOU MUST HAVE
 
e|------------------|
B|------------------|
G|------------------|
D|--3-3-3-3-3-------|
A|--3-3-3-3-3-------|
E|--1-1-1-1-1-------|
    YOUR REASON
 
e|---------------------------------------------|
B|---------------------------------------------|
G|--5-5-5-5-5----------------------------------|
D|--5-5-5-5-5----5-5-5-5-5----7-7-7-7-7--------|
A|--3-3-3-3-3----5-5-5-5-5----7-7-7-7-7--------|
E|---------------3-3-3-3-3----5-5-5-5-5--------|
    THE SEASON   IS CALLING   YOUR PICTURES
 
e|------------------|
B|------------------|
G|------------------|
D|--3-3-3-3-3-------|
A|--3-3-3-3-3-------|
E|--1-1-1-1-1-------|
    ARE FALLING DOWN
 
(Intro)
e|------------------------------------------------------|
B|------------------------------------------------------|
G|------------------------------------------------------|
D|------------2----------2--------0-0--2---3-3--2-2--0--|
A|--3-3--5-5--------5-5------0-0------------------------|
E|--------------3-3-------------------------------------|
 
e|------------------------------------------------------|
B|------------------------------------------------------|
G|------------------------------------------------------|
D|------------2----------2--------0-0--2---3-3--2-2--0--|
A|--3-3--5-5--------5-5------0-0------------------------|
E|--------------3-3-------------------------------------|
 
(Verse)
e|-------------------------------------------------|
B|-------------------------------------------------|
G|--5--X-X-X-X-X-----------------------------------|
D|--5--X-X-X-X-X----5--X-X-X-X-X---7--X-X-X-X-X----|
A|--3--X-X-X-X-X----5--X-X-X-X-X---7--X-X-X-X-X----|
E|------------------3--X-X-X-X-X---5--X-X-X-X-X----|
    THE STEPS THAT  I RETRACE      THAT SAD LOOK
 
e|---------------------|
B|---------------------|
G|---------------------|
D|--3--X-X-X-X-X-------|
A|--3--X-X-X-X-X-------|
E|--1--X-X-X-X-X-------|
    ON YOUR FACE
 
e|-------------------------------------------------|
B|-------------------------------------------------|
G|--5--X-X-X-X-X-----------------------------------|
D|--5--X-X-X-X-X----5--X-X-X-X-X---7--X-X-X-X-X----|
A|--3--X-X-X-X-X----5--X-X-X-X-X---7--X-X-X-X-X----|
E|------------------3--X-X-X-X-X---5--X-X-X-X-X----|
    THE TIMING      AND STRUCTURE  DID YOU HEAR
 
e|---------------------|
B|---------------------|
G|---------------------|
D|--3--X-X-X-X-X-------|
A|--3--X-X-X-X-X-------|
E|--1--X-X-X-X-X-------|
    HE f**kED HER
 
e|--------------------------------------------|
B|--------------------------------------------|
G|--5-5-5-5-5---------------------------------|
D|--5-5-5-5-5----5-5-5-5-5-----7-7-7-7-7------|
A|--3-3-3-3-3----5-5-5-5-5-----7-7-7-7-7------|
E|---------------3-3-3-3-3-----5-5-5-5-5------|
    A DAY LATE   A BUCK SHORT  I’M WRITING 
 
e|------------------|
B|------------------|
G|------------------|
D|--3-3-3-3-3-------|
A|--3-3-3-3-3-------|
E|--1-1-1-1-1-------|
    THE REPORT
 
e|--------------------------------------------|
B|--------------------------------------------|
G|--5-5-5-5-5---------------------------------|
D|--5-5-5-5-5----5-5-5-5-5-----7-7-7-7-7------|
A|--3-3-3-3-3----5-5-5-5-5-----7-7-7-7-7------|
E|---------------3-3-3-3-3-----5-5-5-5-5------|
    I’M LOSING   AND FAILING   WHEN I MOVE
 
e|---------------------------|
B|---------------------------|
G|---------------5-5-5-5-5---|
D|--3-3-3-3-3----5-5-5-5-5---|
A|--3-3-3-3-3----3-3-3-3-3---|
E|--1-1-1-1-1----------------|
    I’M FLAILING NOW
 
(Chorus)
e|----------------------------------------------|
B|----------------------------------------------|
G|--5-5-5-5-5-----------------------------------|
D|--5-5-5-5-5------------5-5-5-5-5--5-5-5-5-5---|
A|--3-3-3-3-3------------5-5-5-5-5--5-5-5-5-5---|
E|-----------------------3-3-3-3-3--3-3-3-3-3---|
    AND IT HAPPENED ONCE AGAIN   I’LL TURN TO A
 
e|--------------------------------------------|
B|--------------------------------------------|
G|--------------------------------------------|
D|--7-7-7-7-7--7-7-7-7-7----3-3-3-3-3---------|
A|--7-7-7-7-7--7-7-7-7-7----3-3-3-3-3---------|
E|--5-5-5-5-5--5-5-5-5-5----1-1-1-1-1---------|
    FRIEND SOMEONE WHO UNDERSTANDS SEE THROUGH
 
e|-----------------------------------|
B|-----------------------------------|
G|-------------5-5-5-5-5--5-5-5-5-5--|
D|--3-3-3-3-3--5-5-5-5-5--5-5-5-5-5--|
A|--3-3-3-3-3--3-3-3-3-3--3-3-3-3-3--|
E|--1-1-1-1-1------------------------|
    THE MASTER PLAN BUT EVERYBODY’S
 
e|----------------------------------|
B|----------------------------------|
G|----------------------------------|
D|--5-5-5-5-5--5-5-5-5-5------------|
A|--5-5-5-5-5--5-5-5-5-5------------|
E|--3-3-3-3-3--3-3-3-3-3------------|
    GONE AND I’VE BEEN HERE FOR TOO
 
e|--------------------------------------------|
B|--------------------------------------------|
G|--------------------------------------------|
D|--7-7-7-7-7--7-7-7-7-7----3-3-3-3-3---------|
A|--7-7-7-7-7--7-7-7-7-7----3-3-3-3-3---------|
E|--5-5-5-5-5--5-5-5-5-5----1-1-1-1-1---------|
    LONG TO FACE THIS ON MY OWN WELL I GUESS
 
e|------------------------|
B|------------------------|
G|---------------------5--|
D|----------5-5-5-5-5--5--|
A|----------5-5-5-5-5--3--|
E|----------3-3-3-3-3-----|
    THIS IS GROWING    UP
 
(Intro)
e|------------------------------------------------------|
B|------------------------------------------------------|
G|------------------------------------------------------|
D|------------2----------2--------0-0--2---3-3--2-2--0--|
A|--3-3--5-5--------5-5------0-0------------------------|
E|--------------3-3-------------------------------------|
                WELL I GUESS THIS IS GROWING UP
 
e|------------------------------------------------------|
B|------------------------------------------------------|
G|------------------------------------------------------|
D|------------2----------2--------0-0--2---3-3--2-2--0--|
A|--3-3--5-5--------5-5------0-0------------------------|
E|--------------3-3-------------------------------------|
 
(Verse)
e|-------------------------------------------------|
B|-------------------------------------------------|
G|--5--X-X-X-X-X-----------------------------------|
D|--5--X-X-X-X-X----5--X-X-X-X-X---7--X-X-X-X-X----|
A|--3--X-X-X-X-X----5--X-X-X-X-X---7--X-X-X-X-X----|
E|------------------3--X-X-X-X-X---5--X-X-X-X-X----|
    AND MAYBE       I’LL SEE YOU   AT A MOVIE
 
e|---------------------|
B|---------------------|
G|---------------------|
D|--3--X-X-X-X-X-------|
A|--3--X-X-X-X-X-------|
E|--1--X-X-X-X-X-------|
    SNEAK PREVIEW
 
e|-------------------------------------------------|
B|-------------------------------------------------|
G|--5--X-X-X-X-X-----------------------------------|
D|--5--X-X-X-X-X----5--X-X-X-X-X---7--X-X-X-X-X----|
A|--3--X-X-X-X-X----5--X-X-X-X-X---7--X-X-X-X-X----|
E|------------------3--X-X-X-X-X---5--X-X-X-X-X----|
    YOU SHOW UP     AND WALK BY    ON THE ARM
 
e|---------------------|
B|---------------------|
G|---------------------|
D|--3--X-X-X-X-X-------|
A|--3--X-X-X-X-X-------|
E|--1--X-X-X-X-X-------|
    OF THAT GUY
 
e|-----------------------------------------------|
B|-----------------------------------------------|
G|--5-5-5-5-5------------------------------------|
D|--5-5-5-5-5------5-5-5-5-5-------7-7-7-7-7-----|
A|--3-3-3-3-3------5-5-5-5-5-------7-7-7-7-7-----|
E|-----------------3-3-3-3-3-------5-5-5-5-5-----|
    AND I’LL SMILE AND YOU’LL WAVE WE’LL PRETEND
 
e|------------------|
B|------------------|
G|------------------|
D|--3-3-3-3-3-------|
A|--3-3-3-3-3-------|
E|--1-1-1-1-1-------|
    IT’S OK
 
e|-----------------------------------------------|
B|-----------------------------------------------|
G|--5-5-5-5-5------------------------------------|
D|--5-5-5-5-5------5-5-5-5-5-------7-7-7-7-7-----|
A|--3-3-3-3-3------5-5-5-5-5-------7-7-7-7-7-----|
E|-----------------3-3-3-3-3-------5-5-5-5-5-----|
    THIS CHARADE   IT WON’T LAST   WHEN HE’S GONE
 
e|-------------------|
B|-------------------|
G|-------------------|
D|--3-3-3-3-3--------|
A|--3-3-3-3-3--------|
E|--1-1-1-1-1--------|
    I WON'T COME BACK
 
(Chorus)
e|------------------------------------------------|
B|------------------------------------------------|
G|--5-5-5-5-5--5-5-5-5-5--------------------------|
D|--5-5-5-5-5--5-5-5-5-5--5-5-5-5-5--5-5-5-5-5----|
A|--3-3-3-3-3--3-3-3-3-3--5-5-5-5-5--5-5-5-5-5----|
E|------------------------3-3-3-3-3--3-3-3-3-3----|
    AND IT’LL HAPPEN ONCE AGAIN YOU’LL TURN TO A
 
e|--------------------------------------------|
B|--------------------------------------------|
G|--------------------------------------------|
D|--7-7-7-7-7--7-7-7-7-7----3-3-3-3-3---------|
A|--7-7-7-7-7--7-7-7-7-7----3-3-3-3-3---------|
E|--5-5-5-5-5--5-5-5-5-5----1-1-1-1-1---------|
    FRIEND SOMEONE WHO UNDERSTANDS SEE THROUGH
 
e|-----------------------------------|
B|-----------------------------------|
G|-------------5-5-5-5-5--5-5-5-5-5--|
D|--3-3-3-3-3--5-5-5-5-5--5-5-5-5-5--|
A|--3-3-3-3-3--3-3-3-3-3--3-3-3-3-3--|
E|--1-1-1-1-1------------------------|
    THE MASTER PLAN BUT EVERYBODY’S
 
e|----------------------------------|
B|----------------------------------|
G|----------------------------------|
D|--5-5-5-5-5--5-5-5-5-5------------|
A|--5-5-5-5-5--5-5-5-5-5------------|
E|--3-3-3-3-3--3-3-3-3-3------------|
    GONE AND I’VE BEEN HERE FOR TOO
 
e|--------------------------------------------|
B|--------------------------------------------|
G|--------------------------------------------|
D|--7-7-7-7-7--7-7-7-7-7----3-3-3-3-3---------|
A|--7-7-7-7-7--7-7-7-7-7----3-3-3-3-3---------|
E|--5-5-5-5-5--5-5-5-5-5----1-1-1-1-1---------|
    LONG TO FACE THIS ON MY OWN WELL I GUESS
 
e|------------------------|
B|------------------------|
G|---------------------5--|
D|----------5-5-5-5-5--5--|
A|----------5-5-5-5-5--3--|
E|----------3-3-3-3-3-----|
    THIS IS GROWING    UP
 
(Bridge)
e|--0---------0----0--------0------0-----|
B|----1-----3---1----1----3---1--3---1---|
G|------0--------------0-----------------|
D|---------------------------------------|
A|---------------------------------------|
E|---------------------------------------|
 
e|--0---------0----0--------0------0-----|
B|----1-----3---1----1----3---1--3---1---|
G|------0--------------0-----------------|
D|---------------------------------------|
A|---------------------------------------|
E|---------------------------------------|
            WELL I GUESS THIS IS GROWING
 
(Outro)
e|-------------------------------------------------------|
B|-------------------------------------------------------|
G|-------------------------------------------------------|
D|------------2----------2--------0-0--2---3-3--2-2--0---|
A|--3-3--5-5--------5-5------0-0-------------------------|
E|--------------3-3--------------------------------------|
    UP                       WELL I GUESS THIS IS GROWING 
 
e|-------------------------------------------------------|
B|-------------------------------------------------------|
G|-------------------------------------------------------|
D|------------2----------2--------0-0--2---3-3--2-2--0---|
A|--3-3--5-5--------5-5------0-0-------------------------|
E|--------------3-3--------------------------------------|
    UP                       WELL I GUESS THIS IS GROWING
 
e|-------------------------------------------------------|
B|-------------------------------------------------------|
G|-------------------------------------------------------|
D|------------2----------2--------0-0--2---3-3--2-2--0---|
A|--3-3--5-5--------5-5------0-0-------------------------|
E|--------------3-3--------------------------------------|
    UP                       WELL I GUESS THIS IS GROWING
 
e|------------------------------------------------------|
B|------------------------------------------------------|
G|------------------------------------------------------|
D|------------2----------2--------0-0--2---3-3--2-2--0--|
A|--3-3--5-5--------5-5------0-0------------------------|
E|--------------3-3-------------------------------------|
    UP                       WELL I GUESS THIS IS 
 
e|----------------|
B|----------------|
G|----------5-----|
D|--5-5-5---5-----|
A|--5-5-5---3-----|
E|--3-3-3---------|
    GROWING UP
            
Submit corrections

↑ Back to top | Tablatures and chords for acoustic guitar and electric guitar, ukulele, drums are parodies/interpretations of the original songs. You may use it for private study, scholarship, research or language learning purposes only