Home » B » Blind Guardian »

Blind Guardian - In The Forest Tabs

Artists:  A B C D E F G H I J K L M N O P Q R S T U V W X Y Z # 

In The Forest Tabs

(ver. 2) Click to play this song!
Blind Guardian
 Rating:
4/5 (4 votes)
                Blind Guardian
In the Forest


Intro:
E|---0-------------------------------------------------|
B|------3--1--0----0--1--0-----0---------1--3--1--0h1--|
G|-------------------------0------2--0-----------------|
D|-----------------------------------------------------|
A|---0-----------------------------------0-------------|
E|-----------------3-----------0-----------------------|


E|---0-------------------------------------------------|
B|------3--1--0----0--1--0-----0-----------------------|
G|-------------------------0------2--0---2-------------|
D|-----------------------------------------------------|
A|---0-----------------------------------0-------------|
E|-----------------3-----------0-----------------------|


E|---0-------------------------------------------------|
B|------3--1--0----0--1--0-----0---------1--3--1--0h1--|
B|-------------------------0------2--0-----------------|
D|-----------------------------------------------------|
A|---0-----------------------------------0-------------|
E|-----------------3-----------0-----------------------|


E|---0-----------------------------------0-------------|
B|------3--1--0----0--1--0-----0-----------------------|
G|-------------------------0------2--0---2-------------|
D|-----------------------------------------------------|
A|---0-----------------------------------0-------------|
E|-----------------3-----------0-----------------------|

In the Verse play the Chords as shown:
	Am		   Em		   G
E|---0-----0-----0----0-----0-----0----1-----1-----1----|
B|-----1-----1-----1----0-----0-----0----0-----0-----0--|
G|-------2-----2----------0-----0----------0-----0------|
D|------------------------------------------------------|
A|-------0-----0----------2-----2-----------------------|
E|-----------------------------------------2-----2------|

Verse:

Am           G        Em              Am
Now you all know the bards and their songs
     Am              G
when hours have gone by
Em          Am
I close my eyes
               G
in a world far away
   Em        Am
we may meet again
                G
but now hear my song
Em                     G            
about the dawn of the night
      Am    G   Am    G    Am   G   Am   G
let's sing the bard song..

Chorus (just play the chords with normal strike pattern):

   G  Am       Dm      Am   
Tomorrow will take us away
Dm        Am
far from home
Am          F    G        Dm
noone will ever know our names
        Am           G
but the bard's songs will remain  
 G    Am       Dm       Am       
tomorrow will take it away
    Dm       Am
the fear of today
Dm          F
it will be gone
    Dm      G     Em
due to our magic songs

Solo

Verse2:
        Am        G
There's only one song
Em          Am
left in my mind
           G
tales of a brave man
    Em              Am
who lived far from here
                       G
now the bard songs are over
    Em            Am
and it's time to leave
             G
noone should ask you
        Em           G 
for the name of the one
    Am     G   Am
who tells the story

Chorus:
  G   Am       Dm       Am
Tomorrow will take us away
Dm        Am
far from home
Dm          F    G        Dm
noone will ever know our names
        Am                G
but the bard's songs will remain  
  G   Am  Dm           Am
tomorrow all will be known
    Dm          Am
and you're not alone
   Dm        F
so don't be afraid
       G        Dm 
of the dark and cold
        G          Am   C G Am
but the bard songs will remain
     C   G      Am
they all will remain

B-part:
C     G        
in my thoughts and
Am
in my dreams
        C      G     Am
they're always in my mind
      C        G        Am     
these songs of hobbits, dwarfs and men
    C          G          Am
and elves come close your eyes
        C   G    Em
you can see them too

I think these aren´t the right tabs for the Verse, but I think it sounds
quite correct. so if you know the right ones please mail me
            
Submit corrections

↑ Back to top | Tablatures and chords for acoustic guitar and electric guitar, ukulele, drums are parodies/interpretations of the original songs. You may use it for private study, scholarship, research or language learning purposes only