» » »

Blind Guardian - In The Forest Tabs

Artists:  A B C D E F G H I J K L M N O P Q R S T U V W X Y Z # 

In The Forest Tabs

(ver. 1) Click to play this song!
Blind Guardian
 Rating:
4/5 (4 votes)

 In The Forest lessons Tabs too difficult? Try these video lessons and learn fast
 
                e----0--------------------------------------------------
b-------3--1--0----0--1--0-----0---------1--3--1--0h1---
g--------------------------0------2--0------------------
d-------------------------------------------------------
a----0-----------------------------------0--------------
e------------------3-----------0------------------------


e----0--------------------------------------------------
b-------3--1--0----0--1--0-----0------------------------
g--------------------------0------2--0---2--------------
d-------------------------------------------------------
a----0-----------------------------------0--------------
e------------------3-----------0------------------------


e----0--------------------------------------------------
b-------3--1--0----0--1--0-----0---------1--3--1--0h1---
g--------------------------0------2--0------------------
d-------------------------------------------------------
a----0-----------------------------------0--------------
e------------------3-----------0------------------------


e----0-----------------------------------0--------------
b-------3--1--0----0--1--0-----0------------------------
g--------------------------0------2--0---2--------------
d-------------------------------------------------------
a----0-----------------------------------0--------------
e------------------3-----------0---------------------

this is the intro part, it is 100% corrext 
other parts will coming soon.
öptüm
            
Submit corrections


        In The Forest lessons Hard to play? Try these video lessons and learn fast In The Forest lessons
        
↑ Back to top | Tablatures and chords for acoustic guitar and electric guitar, ukulele, drums are parodies/interpretations of the original songs. You may use it for private study, scholarship, research or language learning purposes only