Home » B » Bleu Edmondson »

Bleu Edmondson - 50 Dollars And A Flask Of Crown Tabs

Artists:  A B C D E F G H I J K L M N O P Q R S T U V W X Y Z # 

50 Dollars And A Flask Of Crown Tabs

(ver. 1) Click to play this song!
Bleu Edmondson
(Live)
I can't get axe's or lmofle's to sound right so this is my 
take on things.  It's based off the steamboat tracks you can 
download but the track off of One Voice sounds identical, listen for timing.  bleu is the s**t.  


e---------------------------------0-0----------|
b---------------------------------0-0----------|
g----------------------------------------------|
d------------------------------2---------------|
a--------------2-------0-0-2h4-----------------|
e-0-0-2--0-0-4-----2h4-------------------------|


e----------------------------------------------|
b----------------------------------------------|
g----------------------------------------------|
d----------------------------------------------|
a--------------2-------2-2-2-0-----------------|
e-0-0-2--0-0-4-----4s5---------2b-0------------|


Here's something close to the walkdown bit after feelin' kinda mean.....
e-------------------0----|
b-------------------0----|
g-------------------1----|
d-------------------2----|
a-------------------2----|
e--9-0-7-0-5-0-2s4--0----|


            
Submit corrections

↑ Back to top | Tablatures and chords for acoustic guitar and electric guitar, ukulele, drums are parodies/interpretations of the original songs. You may use it for private study, scholarship, research or language learning purposes only